Home » B » BöHse Onkelz »

BöHse Onkelz - Der Schrei Nach Freiheit Tabs

Artists:  A B C D E F G H I J K L M N O P Q R S T U V W X Y Z # 

Der Schrei Nach Freiheit Tabs

(ver. 1) Click to play this song!
BöHse Onkelz
[Intro + Solo 1]

  Guitar I
e|---------------------------------------------------------------------------------------------------|
B|---------------------------------------------------------------------------------------------------|
G|-2-2--0----------2-2--0-----------2-2--0----------2-2--0-----------2-2--0----------2-2--0----------|
D|-2-2--0----------2-2--0-----------2-2--0----------2-2--0-----------2-2--0----------2-2--0----------|
A|---------7-5-7-----------7-5-7-7----------7-5-7-----------7-5-7-7----------7-5-7-----------7-5-7-7-|
E|---------------------------------------------------------------------------------------------------|

  Guitar II (Starts playing at 0:07)
e|-------------------------------------------------------------------------------------------------------|
B|-5--------------------------------------------------------------------8b10-8-5-------------------------|
G|-5----------5---5-7-7b9-7-5-7-5-----------------------------7-5-----x----------7-5-7b9br-5---7-5-------|
D|---7-5-7--7---7-----------------7-5---------------------5-7-----7--------------------------7-----7-5-7-|
A|------------------------------------7-5-3-------3-5-5/7------------------------------------------------|
E|------------------------------------------5---5--------------------------------------------------------|


[Verse 1]

e|-------------------------------------------------------------------|
B|-------------------------------------------------------------------|
G|-2-2--0----------2-2--0-----------2-2--0----------2-2--0-----------|
D|-2-2--0----------2-2--0-----------2-2--0----------2-2--0-----------| 2x
A|---------7-5-7-----------7-5-7-7----------7-5-7-----------7-5-7-7--|
E|-------------------------------------------------------------------|

e|---------------------------------------------------------------------------|
B|---------------------------------------------------------------------------|
G|-5---7-2-2--2---5---7-2-2--2---5---7---9-9-9-9-9-9-9-9-9-9-9-9-9-9-9-------|
D|-5---7-2-2--2---5---7-2-2--2---5---7---9-9-9-9-9-9-9-9-9-9-9-9-9-9-9-------|
A|-3---5-0-0--0---3---5-0-0--0---3---5---7-7-7-7-7-7-7-7-7-7-7-7-7-7-7-------|
E|---------------------------------------------------------------------------|


[Chorus]

e|---------------------------------------------------------------------------|
B|---------------------------------------------------------------------------|
G|-2---4-5---0---5-7---2---4-5---0---5-7-------------------------------------|
D|-2---4-5---0---5-7---2---4-5---0---5-7-------------------------------------|
A|-0---2-3---2---3-5---0---2-3---2---3-5-------------------------------------|
E|---------------------------------------------------------------------------|


[Solo 2]

  Guitar I
e|-------------------------------------------------------------------|
B|-------------------------------------------------------------------|
G|-2-2--0----------2-2--0-----------2-2--0----------2-2--0-----------|
D|-2-2--0----------2-2--0-----------2-2--0----------2-2--0-----------| 
A|---------7-5-7-----------7-5-7-7----------7-5-7-----------7-5-7-7--|
E|-------------------------------------------------------------------|

  Guitar II
e|--------------------------------------------------------------------------------|
B|-8b10-8-5----------------------------------------7b9br-5------------------------|
G|----------7-5-7b9br-7b9-br7-5--------------------7b9br-5---5--------------------|
D|------------------------------7-----5--------------------7---/7-5h7p5---5---5-7-|
A|---------------------------------/7---7-5-3---------------------------7---7-----|
E|--------------------------------------------5-3---------------------------------|

e|---------------------------------------------------------------------------|
B|---8b10-8-5-8b10-8b10-8b10br-5-8b10----------------------------------------|
G|-x-------------------------------------------------------------------------|
D|---------------------------------------------------------------------------|
A|---------------------------------------------------------------------------|
E|---------------------------------------------------------------------------|


[Verse 2]

e|-------------------------------------------------------------------|
B|-------------------------------------------------------------------|
G|-2-2--0----------2-2--0-----------2-2--0----------2-2--0-----------|
D|-2-2--0----------2-2--0-----------2-2--0----------2-2--0-----------|
A|---------7-5-7-----------7-5-7-7----------7-5-7-----------7-5-7-7--|
E|-------------------------------------------------------------------|

e|---------------------------------------------------------------------------|
B|---------------------------------------------------------------------------|
G|-5---7-2-2--2---5---7-2-2--2---5---7---9-9-9-9-9-9-9-9-9-9-9-9-9-9-9-------|
D|-5---7-2-2--2---5---7-2-2--2---5---7---9-9-9-9-9-9-9-9-9-9-9-9-9-9-9-------|
A|-3---5-0-0--0---3---5-0-0--0---3---5---7-7-7-7-7-7-7-7-7-7-7-7-7-7-7-------|
E|---------------------------------------------------------------------------|


[Chorus]

e|---------------------------------------------------------------------------|
B|---------------------------------------------------------------------------|
G|-2---4-5---0---5-7---2---4-5---0---5-7-------------------------------------|
D|-2---4-5---0---5-7---2---4-5---0---5-7-------------------------------------|
A|-0---2-3---2---3-5---0---2-3---2---3-5-------------------------------------|
E|---------------------------------------------------------------------------|


[Solo 3]

  Guitar I
e|-------------------------------------------------------------------|
B|-------------------------------------------------------------------|
G|-2-2--0----------2-2--0-----------2-2--0----------2-2--0-----------|
D|-2-2--0----------2-2--0-----------2-2--0----------2-2--0-----------| 2x
A|---------7-5-7-----------7-5-7-7----------7-5-7-----------7-5-7-7--|
E|-------------------------------------------------------------------|

  Guitar II
e|----------------------------------------------------------------------------------|
B|-20b22br-17-20b22-20b22--20b22-20-17-------17-------------------------------------|
G|-------------------------------------19-19----19-17-19-17----19-17----17----------|
D|----------------------------------------------------------19-------19----19-17-19-|
A|----------------------------------------------------------------------------------|
E|----------------------------------------------------------------------------------|

e|------------------------------------------------------------------------------------------------|
B|-------------------20-------------------------------------------------------------------5-5-5---|
G|----17----17-19b21----21br19-17-----5---------------------------5---5-5---5-5---5-5-5---5-5-5---|
D|-19----19-------------------------x---7-5-7-5---------------5-7---7-----7-----7-------7---------|
A|----------------------------------------------7-5-3---3-5/7-------------------------------------|
E|----------------------------------------------------5-------------------------------------------|

e|------------------------------------------------------------------------------------------------|
B|---17----17-19p17-------19p17-------19p17-------19p17-------19p17-------19p17-------19p17-------|
G|-/-19b21----------19b21-------19b21-------19b21-------19b21-------19b21-------19b21-------------|
D|------------------------------------------------------------------------------------------------|
A|------------------------------------------------------------------------------------------------|
E|------------------------------------------------------------------------------------------------|

e|---------------------------------------------------------------------------|
B|-20b22-20b22-20b22-20b22-20-17-------17------------------------------------|
G|-------------------------------19-19----19-17-19-17----19-17----17-17------|
D|----------------------------------------------------19-------19-------19\--|
A|---------------------------------------------------------------------------|
E|---------------------------------------------------------------------------|

e|---------------------------------------------------------------------------|
B|---------------------------------------------------------------------------|
G|-------17-19-17-------------------------------------------19-17------------|
D|-17/19----------19-19-17----17-------------------------17------------------|
A|-------------------------19----19-18-17-15----15-17/19---------------------|
E|-------------------------------------------17------------------------------|

e|-----17-17-17-17-17-----17-17-17-17-17-----17-17-17-17-17-----17-17-17-17-17-|
B|-----17-17-17-17-17-----17-17-17-17-17-----17-17-17-17-17-----17-17-17-17-17-|
G|-/17----------------/17----------------/17----------------/17----------------|
D|-----------------------------------------------------------------------------|
A|-----------------------------------------------------------------------------|
E|-----------------------------------------------------------------------------|

e|---------------------------------------------------------------------------|
B|-20b22-20-17----17-------------------------------17-20b22------------------|
G|-------------19----19-17-19-17----19-17----17-19---------------------------|
D|-------------------------------19-------19---------------------------------|
A|---------------------------------------------------------------------------|
E|---------------------------------------------------------------------------|


[Bridge]

e|---------------------------------------------------------------------------|
B|---------------------------------------------------------------------------|
G|-5---7-2-2--2---5---7-2-2--2---5---7---9-9-9-9-9-9-9-9-9-9-9-9-9-9-9-------|
D|-5---7-2-2--2---5---7-2-2--2---5---7---9-9-9-9-9-9-9-9-9-9-9-9-9-9-9-------|
A|-3---5-0-0--0---3---5-0-0--0---3---5---7-7-7-7-7-7-7-7-7-7-7-7-7-7-7-------|
E|---------------------------------------------------------------------------|


[Chorus]

  Guitar I
e|---------------------------------------------------------------------------|
B|---------------------------------------------------------------------------|
G|-2---4-5---0---5-7---2---4-5---0---5-7-------------------------------------|
D|-2---4-5---0---5-7---2---4-5---0---5-7-------------------------------------| 3x
A|-0---2-3---2---3-5---0---2-3---2---3-5-------------------------------------|
E|---------------------------------------------------------------------------|

e|---------------------------------------------------------------------------|
B|---------------------------------------------------------------------------|
G|-7---9-7-9--9-7-2----------------------------------------------------------|
D|-7---9-7-9--9-7-2----------------------------------------------------------|
A|-5---7-5-7--7-5-0----------------------------------------------------------|
E|---------------------------------------------------------------------------|


  Guitar II (starts playing at 3:22)
e|-----------------------------------------------------------------------------------|
B|------------------------------------8b10-8-5---------15b17-15b17-15-13-------------|
G|-7b9-7b9br-5---5--------7b9-7b9br-5----------7-5-7b9-------------------14-14-12-14-|
D|-------------7---7-5-7-------------------------------------------------------------|
A|-----------------------------------------------------------------------------------|
E|-----------------------------------------------------------------------------------|

e|-------------------15-12---------------------------------------------------|
B|-15b17-15b17-15-13-------15-13-15b17---17-15-17---17-15--------------------|
G|--------------------------------------------------------14-----------------|
D|---------------------------------------------------------------------------|
A|---------------------------------------------------------------------------|
E|---------------------------------------------------------------------------|            
Submit corrections

↑ Back to top | Tablatures and chords for acoustic guitar and electric guitar, ukulele, drums are parodies/interpretations of the original songs. You may use it for private study, scholarship, research or language learning purposes only