Home » B » Beth Orton »

Beth Orton - Safety Tabs

Artists:  A B C D E F G H I J K L M N O P Q R S T U V W X Y Z # 

Safety Tabs

(ver. 1) Click to play this song!
Beth Orton


/o/Orton_Beth/Safety.tab



[verse and chorus]:

    D             F             C            G    C
e -------0h2----|-------1----|--------0----|-------------||
B ----3-----3-3-|---1----1-1-|---------1-1-|---------0---||
G ---2-2-----2--|--2-2----2--|----0-----0--|----0---0----||
D --0-----------|-3----------|---2-2-------|---0---2----:||
A --------------|------------|--3----------|--2---3------||
E --------------|------------|-------------|-3-----------||

D         F                    C                       G      C
He saw a time to come when the eyes of the world would see as one

He saw a time to come when all of our laughter is seen through the eyes   
of the sun

and youll get angry in this town, coz you see more than whats been found

you cant be too needy in this town, coz theres enough of that around

safety in lovers, freedom from therein
safety in lovers and somewhere to begin


e -0---0--------
B --1---1----0--
G ---0-----0----
D --------------


He saw a time to come where the eyes of the world would cry as one

He saw a time to come when all of our works not done for the good of some

and youll get angry in this town, coz theres not more than whats been   
found

you cant be too needy in this town, coz theres enough of that around


safety in lovers, freedom from therein
safety in lovers and somewhere to begin

safety in lovers, freedom from within
safety in lovers and somewhere to begin



Nic
            
Submit corrections

↑ Back to top | Tablatures and chords for acoustic guitar and electric guitar, ukulele, drums are parodies/interpretations of the original songs. You may use it for private study, scholarship, research or language learning purposes only