Home » B » Bethel Music »

Bethel Music - You Make Me Brave Tabs

Artists:  A B C D E F G H I J K L M N O P Q R S T U V W X Y Z # 

You Make Me Brave Tabs

(ver. 1) Click to play this song!
Bethel Music
Intro & Chorus:
e|--------13---------13---11--18---------------------------------------------|
B|--11--11-----11--11--------------------------------------------------------|
G|----12---------12-----12---------------------------------------------------|
D|---------------------------------------------------------------------------|
A|---------------------------------------------------------------------------|
E|---------------------------------------------------------------------------|

Chorus:
e|---------------------------------------------------------------------------|
B|---------------------------------------------------------------------------|
G|--12(x16)---15(x16)---13(x8)---12(x16)---10(x8)----reapeat-----------------|
D|---------------------------------------------------------------------------|
A|---------------------------------------------------------------------------|
E|---------------------------------------------------------------------------|

Bridge:
e|--------13---------13---------13--------18--11-----------------------------|
B|--11--11-----11--11-----11--11----11--11-----------------------------------|
G|----12---------12---------12--------12-------------------------------------|
D|---------------------------------------------------------------------------|
A|---------------------------------------------------------------------------|
E|---------------------------------------------------------------------------|
            
Submit corrections

↑ Back to top | Tablatures and chords for acoustic guitar and electric guitar, ukulele, drums are parodies/interpretations of the original songs. You may use it for private study, scholarship, research or language learning purposes only