Home » B » Bethel Music »

Bethel Music - Jesus We Love You Tabs

Artists:  A B C D E F G H I J K L M N O P Q R S T U V W X Y Z # 

Jesus We Love You Tabs

(ver. 1) Click to play this song!
Bethel Music
 Rating:
2/5 (4 votes)
                Key of B

Verse 1: You can do some swells if you want, but for the most part, it's only acoustic.

Pre-chorus:

E|--------------|
B|--2--0--4--2--|
G|--------------|
D|--------------|
A|--------------|
E|--------------|

Chorus 1:

E|--11--4--2----------11--4--2------------|
B|------------4--0/7------------2/4--4\2--|
G|----------------------------------------|
D|----------------------------------------|
A|----------------------------------------|
E|----------------------------------------|

Verse 2:  Comes in towards the end of the verse.

E|------2-------6-----|
B|--2h4-----2h4-------|
G|--------------------|
D|--------------------|
A|--------------------|
E|--------------------|

Pre-Chorus 2: These are all tremolo picked

E|--7777777--9999999--11-11-11-11-11-----------------|
B|-----------------------------------11-11-11-11-11--|
G|---------------------------------------------------|
D|---------------------------------------------------|
A|---------------------------------------------------|
E|---------------------------------------------------|

Chorus 2:

E|--11--4--2--11--7--9--11--4--2------------|
B|--------------------------------2/4--4\2--|
G|------------------------------------------|
D|------------------------------------------|
A|------------------------------------------|
E|------------------------------------------|

Interlude: For the first part, notes follow chord changes.

E|-----------------------------------------|
B|--0--2--4---0--2--4---0--2--4---0--2--0--|
G|-----------------------------------------|
D|-----------------------------------------|
A|-----------------------------------------|
E|-----------------------------------------|

Bridge:

E|-------7-------7--|
B|--4h7-----5h7-----|
G|------------------|
D|------------------|
A|------------------|
E|------------------|

Chorus 2:

E|----11--4--2--11--7--9--11--4--2------------|
B|----------------------------------2/4--4/2--|
G|--------------------------------------------|
D|--------------------------------------------|
A|--------------------------------------------|
E|--------------------------------------------|

Chorus 3 / Ending:

E|--11--4--2--11--7--9--11--4--2-----|
B|--------------------------------0--|
G|-----------------------------------|
D|-----------------------------------|
A|-----------------------------------|
E|-----------------------------------|            
Submit corrections

↑ Back to top | Tablatures and chords for acoustic guitar and electric guitar, ukulele, drums are parodies/interpretations of the original songs. You may use it for private study, scholarship, research or language learning purposes only