Home » B » Bethel Music »

Bethel Music - Reign Above It All Tabs

Artists:  A B C D E F G H I J K L M N O P Q R S T U V W X Y Z # 

Reign Above It All Tabs

(ver. 1) Click to play this song!
Bethel Music
[Verse 1] [Won't come in until the first chorus]
 
e|---------------------------------------------------------------------------|
B|---------------------------------------------------------------------------|
G|---------------------------------------------------------------------------|
D|---------------------------------------------------------------------------|
A|---------------------------------------------------------------------------|
E|---------------------------------------------------------------------------|
The reign of darkness now has ended In the kingdom of light
In the kingdom of light Forever under Your dominion
You're the King of my life You're the King of my life
 
 
[Chorus]
 
e|---------------------------------------------------------------------------|
B|------17--------------------------15------------14-------------------------|
G|--14-----------------------------------------------------------------------|
D|---------------------------------------------------------------------------|
A|---------------------------------------------------------------------------|
E|---------------------------------------------------------------------------|
       You reign above it all, You reign above it all
 
e|---------------------------------------------------------------------------|
B|------17--------------------------15------------14-------------------------|
G|--14-----------------------------------------------------------------------|
D|---------------------------------------------------------------------------|
A|---------------------------------------------------------------------------|
E|---------------------------------------------------------------------------|
         Over the universe and     over every    heart
 
e|---------------------------------------------------------------------------|
B|-----------12--------14--10------------------------------------------------|
G|----------------------------------------------------14---------------------|
D|---------------------------------------------------------------------------|
A|---------------------------------------------------------------------------|
E|---------------------------------------------------------------------------|
There is no higher name Jesus, You reign above it all
 
 
 
[Verse 2]
   P.M. ------------------------------------|          P.M.---|
e|------------------------------------------------9--------------------------|
B|-----------10(x8)-------------12(x4)-------------10------------------------|
G|--11(x8)-----------------------------9(x10)--------9-11(x8)----------------|
D|---------------------------------------------------------------------------|
A|---------------------------------------------------------------------------|
E|---------------------------------------------------------------------------|
     On the  cross, the work was finished God, You poured out Your life-
 
P.M. ---------------------------------------|
e|---------------------------------------------------------------------------|
B|10(x8)---------9(x8)-------------------------------------------------------|
G|-------------------------------9(x4)---------------------------------------|
D|--------------------------------------9(x4)--------------------------------|
A|---------------------------------------------------------------------------|
E|---------------------------------------------------------------------------|
        Just to give us new life
 
P.M. -------------------------------------|                   P.M.---|
e|----------------------------------------------------9----------------------|
B|----------------10(x8)---------12(x4)----------------10--------------------|
G|--11(x8)-----------------------------9(x10)------------9---11(x8)----------|
D|---------------------------------------------------------------------------|
A|---------------------------------------------------------------------------|
E|---------------------------------------------------------------------------|
      Now from the lips of the forgiven      Hear an anthem arise
 
P.M. -------|
e|----------------------------------------12---------------------------------|
B|10(x8)----------12-------12------12----------------------------------------|
G|-----------------------9-------9-------9-----------------------------------|
D|---------------------------------------------------------------------------|
A|---------------------------------------------------------------------------|
E|---------------------------------------------------------------------------|
  'Cause Jesus You're alive, oh
 
 
[Chorus]
 
e|---------------------------------------------------------------------------|
B|------5--------------------------------------------------------------------|
G|--2------------------------------2--/7------------/6-----------------------|
D|---------------------------------------------------------------------------|
A|---------------------------------------------------------------------------|
E|---------------------------------------------------------------------------|
        You reign above it all, You  reign above it all
 
e|---------------------------------------------------------------------------|
B|-------5-------------------------------------------------------------------|
G|--2-----------------------2--/7--------/6----------------------------------|
D|---------------------------------------------------------------------------|
A|---------------------------------------------------------------------------|
E|---------------------------------------------------------------------------|
        Over the universe and over every heart
 
e|---------------------------------------------------------------------------|
B|----------------------2----------------------------------------------------|
G|-----------4-------------2-------------------------------------------------|
D|---------------------------------------------------------------------------|
A|---------------------------------------------------------------------------|
E|---------------------------------------------------------------------------|
There is no higher name  Jesus, You reign above it all
 
e|---------------------------------------------------------------------------|
B|------5--------------------------------------------------------------------|
G|--2------------------------2----/7------------/6---------------------------|
D|---------------------------------------------------------------------------|
A|---------------------------------------------------------------------------|
E|---------------------------------------------------------------------------|
        Let all of Heaven and the Earth erupt in song
 
e|---------------------------------------------------------------------------|
B|------5--------------------------------------------------------------------|
G|--2---------------------2------/7-----------/6-----------------------------|
D|---------------------------------------------------------------------------|
A|---------------------------------------------------------------------------|
E|---------------------------------------------------------------------------|
        Sing hallelujah   to the Everlasting One
 
e|---------------------------------------------------------------------------|
B|----------7-9--9-9-------10----/7-7-7-----10---/17-------------------------|
G|---------------------------------------------------------------------------|
D|---------------------------------------------------------------------------|
A|---------------------------------------------------------------------------|
E|---------------------------------------------------------------------------|
  There is no higher name Jesus, You reign above it all
  Yes, You reign above it all
 
 
[Bridge]
 
e|---------------------------------------------------------------------------|
B|---------------------------------------------------------------------------|
G|--------------------18----------------14----18-----------------------------|
D|------------16-------------------------------------------------------------|
A|---------------------------------------------------------------------------|
E|---------------------------------------------------------------------------|
You sent the darkness running Out of an empty grave
 
e|-------------------------------------------------------------------------
B|-------------------17-------------------------------12-------------------
G|-----------14-----------------------------13-----------------------------
D|-------------------------------------------------------------------------
A|-------------------------------------------------------------------------
E|-------------------------------------------------------------------------
 Now seated alone in glory Enthroned on the highest praise
 [Play x4]
 
--|
--|
--|
--|
--|
--|
[Then on the 5th and 6th time strum every note as 8th notes instead getting
  progressively faster and following the build of the song into the chorus]
 
 
[Chorus]
e|---------------------------------------------------------------------------|
B|------5--------------------------------------------------------------------|
G|--2------------------------------2--/7------------/6-----------------------|
D|---------------------------------------------------------------------------|
A|---------------------------------------------------------------------------|
E|---------------------------------------------------------------------------|
        You reign above it all, You  reign above it all
 
e|---------------------------------------------------------------------------|
B|-------5-------------------------------------------------------------------|
G|--2-----------------------2--/7--------/6----------------------------------|
D|---------------------------------------------------------------------------|
A|---------------------------------------------------------------------------|
E|---------------------------------------------------------------------------|
        Over the universe and over every heart
 
e|---------------------------------------------------------------------------|
B|----------------------2----------------------------------------------------|
G|-----------4-------------2-------------------------------------------------|
D|---------------------------------------------------------------------------|
A|---------------------------------------------------------------------------|
E|---------------------------------------------------------------------------|
There is no higher name  Jesus, You reign above it all
 
e|---------------------------------------------------------------------------|
B|------5--------------------------------------------------------------------|
G|--2------------------------2----/7------------/6---------------------------|
D|---------------------------------------------------------------------------|
A|---------------------------------------------------------------------------|
E|---------------------------------------------------------------------------|
        Let all of Heaven and the Earth erupt in song
 
e|---------------------------------------------------------------------------|
B|------5--------------------------------------------------------------------|
G|--2---------------------2------/7-----------/6-----------------------------|
D|---------------------------------------------------------------------------|
A|---------------------------------------------------------------------------|
E|---------------------------------------------------------------------------|
        Sing hallelujah   to the Everlasting One
 
                                         [Pick Slide]~~~~~~~~~~~
e|---------------------------------------------------------------------------|
B|----------7-9--9-9-------10----/7-7-7--------------------------------------|
G|---------------------------------------------------------------------------|
D|---------------------------------------------------------------------------|
A|---------------------------------------------------------------------------|
E|----------------------------------------X/---------------------------------|
  There is no higher name Jesus, You reign       above it all
Yes, You reign above it all
 
[Outro]
 [Strum with the chord progression]
e|---------------------------------------------------------------------------|
B|-10-----17------15-------14------------------------------------------------|
G|-x------x-------x---------x------------------------------------------------|
D|-7------14------12-------11------------------------------------------------|
A|---------------------------------------------------------------------------|
E|---------------------------------------------------------------------------|
                              You reign above it all
 
e|---------------------------------------------------------------------------|
B|-10-----17------15-------14-----------7--9-9-9---------10--/7-7-7----------|
G|-x------x-------x---------x------------------------------------------------|
D|-7------14------12-------11------------------------------------------------|
A|---------------------------------------------------------------------------|
E|---------------------------------------------------------------------------|
                   Yes, You reign above it all                       [Swell on the A]
            
Submit corrections

↑ Back to top | Tablatures and chords for acoustic guitar and electric guitar, ukulele, drums are parodies/interpretations of the original songs. You may use it for private study, scholarship, research or language learning purposes only