Home » B » Beta Band »

Beta Band - Dr Baker Tabs

Artists:  A B C D E F G H I J K L M N O P Q R S T U V W X Y Z # 

Dr Baker Tabs

(ver. 1) Click to play this song!
Beta Band
[Intro]
 
 (1st guitar)
e|---------------------|
B|---------------------|
G|---------------------|
D|---4----4----4----4--| 4x
A|-5-5--5-5--5-5--5-5--|
E|---------------------|
 
 (2nd guitar)
e|-10-8-10-------10--8-----|
B|---------8-10--------10--|
G|-------------------------|
D|-------------------------| 4x
A|-------------------------|
E|-------------------------|
 
 (3rd guitar) joins guitar 1 and 2 after 2x of first two guitars
e|----------8-7-------|
B|---7-10-8-----10-8--|
G|-7------------------|
D|--------------------| 2x
A|--------------------|
E|--------------------|
 
 
[Verse 1] "Dr Baker ..."
 
e|---------------------|---------------------|---------------------|
B|---------------------|---------------------|---------------------|
G|---------------------|---------------------|---------------------|
D|---4----4----4----4--|---4----4----4----4--|---4----4----4----4--|
A|-5-5--5-5--3-3--3-3--|-5-5--5-5--3-3--3-3--|-2-2--3-3--5-5--5-5--|
E|---------------------|---------------------|---------------------|
 
e|---------------------|---------------------|-------------------------------|
B|---------------------|---------------------|-------------------------------|
G|---------------------|---------------------|-------------------------------|
D|---4----4----4----4--|---4----4----4----4--|---4----4----4----4----4----4--|
A|-5-5--5-5--3-3--3-3--|-5-5--5-5--3-3--3-3--|-2-2--3-3--5-5--5-5--5-5--5-5--|
E|---------------------|---------------------|-------------------------------|
 
 (2nd guitar)
e|-10-8-10-------10--8-----|
B|---------8-10--------10--|
G|-------------------------|
D|-------------------------| 8x
A|-------------------------|
E|-------------------------|
 
 (3rd guitar)
e|----------8-7-------|
B|---7-10-8-----10-8--|
G|-7------------------|
D|--------------------| 8x
A|--------------------|
E|--------------------|
 
 
[Breakdown]
 
(Just random noise here. Hit open strings, fret strings, scr*pe strings, whatever)
 
 
[Chorus] (xylophone parts) "See me lost inside ..."
 
e|-14----14----14----14----14----14----14---17--|
B|----15----15----15----15----15----15----------|
G|----------------------------------------------| repeat to end of chorus
D|----------------------------------------------|
A|----------------------------------------------|
E|----------------------------------------------|
 
 
[Verse 2]
 
 (1st guitar)
e|---------------------|
B|---------------------|
G|---------------------|
D|---4----4----4----4--| 2x
A|-5-5--5-5--5-5--5-5--|
E|---------------------|
 
e|---------------------|---------------------|
B|---------------------|---------------------|
G|---------------------|---------------------|
D|---4----4----4----4--|---4----4----4----4--|
A|-5-5--5-5--3-3--3-3--|-2-2--3-3--5-5--5-5--|
E|---------------------|---------------------|
 
e|---------------------|---------------------|-----------|
B|---------------------|---------------------|-----------|
G|---------------------|---------------------|-----------|
D|---4----4----4----4--|---4----4----4----4--|---4----4--|
A|-5-5--5-5--3-3--3-3--|-2-2--3-3--5-5--5-5--|-5-5--5-5--|
E|---------------------|---------------------|-----------|
 
 (2nd guitar)
e|-10-8-10-------10--8-----|
B|---------8-10--------10--|
G|-------------------------|
D|-------------------------| 8x
A|-------------------------|
E|-------------------------|
 
 (3rd guitar)
e|----------8-7-------|
B|---7-10-8-----10-8--|
G|-7------------------|
D|--------------------| 8x
A|--------------------|
E|--------------------|
 
 
[Breakdown]
 
(Just random noise here. Hit open strings, fret strings, scr*pe strings, whatever)
 
 
[Outro] (xylophone parts)
 
e|-14----14----14----14----14----14----14---17--|
B|----15----15----15----15----15----15----------|
G|----------------------------------------------| repeat to end of song
D|----------------------------------------------|
A|----------------------------------------------|
E|----------------------------------------------|
            
Submit corrections

↑ Back to top | Tablatures and chords for acoustic guitar and electric guitar, ukulele, drums are parodies/interpretations of the original songs. You may use it for private study, scholarship, research or language learning purposes only