Home » B » Beta Band »

Beta Band - Ba Tabs

Artists:  A B C D E F G H I J K L M N O P Q R S T U V W X Y Z # 

Ba Tabs

(ver. 1) Click to play this song!
Beta Band
[Main Riff]
e|--------3-0-----|
B|------3---------|
G|----2-----------|
D|--2-------------|
A|----------------|
E|0---------------|

e|2-----0---------|
B|3-----2---------|
G|2-----2---------|
D|0-----2---------|
A|0-----0---------|
E|------0---------|

e|----------------|----------------|
B|----------------|----------------|
G|----------------|----------------|
D|----------------|----------------|
A|-------3-0------|-------3-0--3344|
E|35-35------35---|35-35-----------|            
Submit corrections

↑ Back to top | Tablatures and chords for acoustic guitar and electric guitar, ukulele, drums are parodies/interpretations of the original songs. You may use it for private study, scholarship, research or language learning purposes only