Home » B » Berurier Noir »

Berurier Noir - Nada 84 Tabs

Artists:  A B C D E F G H I J K L M N O P Q R S T U V W X Y Z # 

Nada 84 Tabs

(ver. 1) Click to play this song!
Berurier Noir
[Intro]
 
e|----------------------------------|
B|----------------------------------|
G|----------------7--x-x-6--x-x-6---| x2
D|----------------7--x-x-6--x-x-6---|
A|-2-2-2-2--2/5-5-5--x-x-4--x-x-4---|
E|----------------------------------|
 
[Hook]
 
Torture mentale physique psychose
Torture mentale physique nevrose
Torture mentale physique osmose
Néant néant néant néant
Nada nada nada nada
 
e|----------------------------------|
B|----------------------------------|
G|----------------7--x-x-6--x-x-6---| x5
D|----------------7--x-x-6--x-x-6---|
A|-2-2-2-2--2/5-5-5--x-x-4--x-x-4---|
E|----------------------------------|
 
[Verse 1]
 
Dans les camps de concentrations
Block h block h block h block h
Service torture service mental
Service secret service fasciste
 
e|----------------------------------|
B|----------------------------------|
G|-4--4-4/7--7-7\6--6--6-6----------| x4
D|-4--4-4/7--7-7\6--6--6-6----------|
A|-2--2-2/5--5-5\4--4--4-4----------|
E|----------------------------------|
 
En sibérie occidentale
 
e|----------------------------------|
B|----------------------------------|
G|----------------7--x-x-6--x-x-6---|
D|----------------7--x-x-6--x-x-6---|
A|-2-2-2-2--2/5-5-5--x-x-4--x-x-4---|
E|----------------------------------|
 
[Hook]
 
Torture mentale physique psychose
Torture mentale physique nevrose
Torture mentale physique osmose
Néant néant néant néant
Nada nada nada nada
 
e|----------------------------------|
B|----------------------------------|
G|----------------7--x-x-6--x-x-6---| x5
D|----------------7--x-x-6--x-x-6---|
A|-2-2-2-2--2/5-5-5--x-x-4--x-x-4---|
E|----------------------------------|
 
[Verse 2]
 
Dans les pays sous développés
La dictature s'est imposée
Les militaires sont au pouvoir
Dans les camps rien de beau à voir
 
e|----------------------------------|
B|----------------------------------|
G|-4--4-4/7--7-7\6--6--6-6----------| x4
D|-4--4-4/7--7-7\6--6--6-6----------|
A|-2--2-2/5--5-5\4--4--4-4----------|
E|----------------------------------|
 
Service torture service nada
 
e|----------------------------------|
B|----------------------------------|
G|----------------7--x-x-6--x-x-6---|
D|----------------7--x-x-6--x-x-6---|
A|-2-2-2-2--2/5-5-5--x-x-4--x-x-4---|
E|----------------------------------|
 
[Hook]
 
Torture mentale physique psychose
Torture mentale physique nevrose
Torture mentale physique osmose
Néant néant néant néant
Nada nada nada nada
 
e|----------------------------------|
B|----------------------------------|
G|----------------7--x-x-6--x-x-6---| x5
D|----------------7--x-x-6--x-x-6---|
A|-2-2-2-2--2/5-5-5--x-x-4--x-x-4---|
E|----------------------------------|
 
[Outro]
 
e|---------------------------------------------------------------------------|
B|---------------------------------------------------------------------------|
G|-4-4-4-4--4-4-4-4--4-4-4-4--4-4-4-4--7-7-7-7--6-6-6-6--6-6-6-6--6-6-6-6----| x5
D|-4-4-4-4--4-4-4-4--4-4-4-4--4-4-4-4--7-7-7-7--6-6-6-6--6-6-6-6--6-6-6-6----|
A|-2-2-2-2--2-2-2-2--2-2-2-2--2-2-2-2--5-5-5-5--4-4-4-4--4-4-4-4--4-4-4-4----|
E|---------------------------------------------------------------------------|
 
e|-------------------------------------------------------------------------------|
B|-------------------------------------------------------------------------------|
G|-4-4-4-4--4-4-4-4--4-4-4-4--4-4-4-4--7-7-7-7--6-6-6-6--6-6-6-6--12-12-12-12----| x5
D|-4-4-4-4--4-4-4-4--4-4-4-4--4-4-4-4--7-7-7-7--6-6-6-6--6-6-6-6--12-12-12-12----|
A|-2-2-2-2--2-2-2-2--2-2-2-2--2-2-2-2--5-5-5-5--4-4-4-4--4-4-4-4--10-10-10-10----|
E|-------------------------------------------------------------------------------|
 
e|---------------------------------------------------------------|
B|---------------------------------------------------------------|
G|-4-4-4-4--4-4-4-4--4-4-4-4--4-4-4-4--7--7--7--7--6--6--6--6----| x5
D|-4-4-4-4--4-4-4-4--4-4-4-4--4-4-4-4--7--7--7--7--6--6--6--6----|
A|-2-2-2-2--2-2-2-2--2-2-2-2--2-2-2-2--5--5--5--5--4--4--4--4----|
E|---------------------------------------------------------------|
            
Submit corrections

↑ Back to top | Tablatures and chords for acoustic guitar and electric guitar, ukulele, drums are parodies/interpretations of the original songs. You may use it for private study, scholarship, research or language learning purposes only