Home » B » Berurier Noir »

Berurier Noir - Mineurs En Danger Tabs

Artists:  A B C D E F G H I J K L M N O P Q R S T U V W X Y Z # 

Mineurs En Danger Tabs

(ver. 1) Click to play this song!
Berurier Noir
Tuning:standard


Intro:

e|-----------------|-----------------|-----------------|-----------------|
B|-----------------|-----------------|-----------------|-----------------|
G|-2-2-2-2-2-2-2-2-|-4-4-4-4-4-4-4-4-|-5-5-5-5-5-5-5-5-|-----------------|
D|-2-2-2-2-2-2-2-2-|-4-4-4-4-4-4-4-4-|-5-5-5-5-5-5-5-5-|-5-5-5-5-5-5-5-5-|
A|-0-0-0-0-0-0-0-0-|-2-2-2-2-2-2-2-2-|-3-3-3-3-3-3-3-3-|-5-5-5-5-5-5-5-5-|
E|-----------------|-----------------|-----------------|-3-3-3-3-3-3-3-3-|

Main riff:


e|-----------------|-----------------|-----------------|-----------------|
B|-----------------|-----------------|-----------------|-----------------|
G|-2-2-2-2-2-2-2-2-|-4-4-4-4---------|-5-5-5-5-2-2-2-2-|-5-5-5-5-2-2-2-2-|
D|-2-2-2-2-2-2-2-2-|-4-4-4-4-5-5-5-5-|-5-5-5-5-2-2-2-2-|-5-5-5-5-2-2-2-2-|
A|-0-0-0-0-0-0-0-0-|-2-2-2-2-5-5-5-5-|-3-3-3-3-0-0-0-0-|-3-3-3-3-0-0-0-0-|
E|-----------------|---------3-3-3-3-|-----------------|-----------------|
            
Submit corrections

↑ Back to top | Tablatures and chords for acoustic guitar and electric guitar, ukulele, drums are parodies/interpretations of the original songs. You may use it for private study, scholarship, research or language learning purposes only