» » »

Berurier Noir - Macadam Massacre Tabs

Artists:  A B C D E F G H I J K L M N O P Q R S T U V W X Y Z # 

Macadam Massacre Tabs

(ver. 1) Click to play this song!
Berurier Noir
 Rating:
4/5 (4 votes)

 Macadam Massacre lessons Tabs too difficult? Try these video lessons and learn fast
 
                Intro:

D------------------------------------------------------------
A-3-3-2-3-0---3-3-2-3---3-3-2-3-0---3---3-3-2-3-0---3-3-2-3--
E------------------------------------------------------------

D-------------------------------------
A-3-3-2-0-2-0------2---3-3-2-0-2-0----
E--------------0-2------------------2-


D---------------------------------------------------------------
A-3-3-2-3-0---3-3-2-3-5---3-3-2-3-0---5---3-3-2-3-0---3-3-2-3-5-
E---------------------------------------------------------------

D-------------------------------------
A-3-3-2-0-2-0------2---3-3-2-0-2-0----
E--------------0-2------------------2-


Couplets:
F#/D

Outro:

e---------------------------------------------------
B---------------------------------------------------
G-------------------------------------12--10-12-10--
D---------------------------------------------------
A------------------------------5-5-5----------------
E-2-2-2--2-2-2--2-2-2--2-2-2------------------------
PM. .    . .    . .    . .
            
Submit corrections


        Macadam Massacre lessons Hard to play? Try these video lessons and learn fast Macadam Massacre lessons
        
↑ Back to top | Tablatures and chords for acoustic guitar and electric guitar, ukulele, drums are parodies/interpretations of the original songs. You may use it for private study, scholarship, research or language learning purposes only