Home » B » Benjamin Francis Leftwich »

Benjamin Francis Leftwich - Tilikum Tabs

Artists:  A B C D E F G H I J K L M N O P Q R S T U V W X Y Z # 

Tilikum Tabs

(ver. 1) Click to play this song!
Benjamin Francis Leftwich
e |--------------------------------------------------------------------------|
A#|---------------------------------0---------------0------------------------|
G |-----0---0---0---0-------0---------------0--------------------------------|
D |---5---3---0-----------------3---------------3----------------------------|
A |---------------1----------------------------------------------------------|
D#|---------------------4---------------4------------------------------------|

e |--------------------------------------------------------------------------|
A#|---------------------------------0---------------0------------------------|
G |-----0---0---0---0-------0---------------0--------------------------------|
D |---5---3---0-----------------3---------------3----------------------------|
A |---------------1----------------------------------------------------------|
D#|---------------------0---------------0------------------------------------|

e |--------------------------------------------------------------------------|
A#|---------------------------------0---------------0------------------------|
G |-----0---0---0---0-------0---------------0--------------------------------|
D |---5---3---0-----------------3---------------3----------------------------|
A |---------------1----------------------------------------------------------|
D#|---------------------2---------------2------------------------------------|

e |----------------------------------------------------------------------------------|
A#|---------------0---------------0---------------0--------------2---------------2---|
G |-------0---------------0---------------0---------------0--------------0-----------|
D |-----------3---------------3---------------3---------------3--------------3-------|
A |----------------------------------------------------------------------------------|
D#|---4---------------2---------------0---------------0--------------0---------------|

            
Submit corrections

↑ Back to top | Tablatures and chords for acoustic guitar and electric guitar, ukulele, drums are parodies/interpretations of the original songs. You may use it for private study, scholarship, research or language learning purposes only