» » »

Benjamin Francis Leftwich - Box Of Stones Tabs

Artists:  A B C D E F G H I J K L M N O P Q R S T U V W X Y Z # 

Box Of Stones Tabs

(ver. 1) Click to play this song!
Benjamin Francis Leftwich
 Rating:
4/5 (4 votes)

 Box Of Stones lessons Tabs too difficult? Try these video lessons and learn fast
 
                

Standard Tuning
Capo: Fret 6

Heard this on the radio and absolutely loved it.
Think I've got the tab and lyrics right but any comments are welcome.
Enjoy! :)

Intro and Verse:

e|----------------|----------------|----------------|----------------|
B|-1-------1------|-1-------1------|-1-------1------|-3-------1------|
G|---0---0---0---0|---0---0---0---0|---0---0---0---0|---0---0---0---0|
D|-----2-------2--|-----2-------2--|-----0-------0--|-----0-------0--|
A|-3-------3------|-0-------0------|-2-------2------|-2-------2------|
E|----------------|----------------|----------------|----------------|

Play 2x for Intro and 4x for Verse 1.

My harbour has a boat in it.
Water makes its way around it.
When the Sun shines down, the hill's winds blow.
I miss you more.

Chorus 1:

e|----------------|----------------|----------------|----------------|
B|-1--------------|-1--------------|-1-------0------|-1-------1------|
G|----------------|----------------|---0---0---0---0|---0---0---0---0|
D|---3---3---3---3|---2---2---2---2|-----0-------0--|-----2-------0--|
A|-0---0---0---0--|-3---3---3---3--|-2-------2------|-3-------2------|
E|----------------|----------------|----------------|----------------|

Play 2x For Chorus.

You said I am young, I am yours, I am free, but I am flawed.
I am here, in your heart, I was here from the start.

Post Chorus:

e|----------------|----------------|----------------|----------------|
B|-1-------1------|-1-------3-1----|-1-------0------|-3-------0------|
G|---0---0---0---0|---0---0-------0|---0---0---0---0|---0---0---0---0|
D|-----2-------2--|-----2-------2--|-----0-------0--|-----0-------0--|
A|-3-------3------|-0-------0------|-2-------2------|-2-------2------|
E|----------------|----------------|----------------|----------------|

Verse 2:

e|----------------|----------------|----------------|----------------|
B|-1-------1------|-1-------1------|-1-------1------|-3-------1------|
G|---0---0---0---0|---0---0---0---0|---0---0---0---0|---0---0---0---0|
D|-----2-------2--|-----2-------2--|-----0-------0--|-----0-------0--|
A|-3-------3------|-0-------0------|-2-------2------|-2-------2------|
E|----------------|----------------|----------------|----------------|

Play 4x for Verse 2.

The Forest had a rock in it.
Roots and animals were blocked by it.
And when they turned all their bones were changed to stone.
They lost their faith.

Chorus 2:

e|----------------|----------------|----------------|----------------|
B|-1--------------|-1--------------|-1-------0------|-1-------1------|
G|----------------|----------------|---0---0---0---0|---0---0---0---0|
D|---3---3---3---3|---2---2---2---2|-----0-------0--|-----2-------0--|
A|-0---0---0---0--|-3---3---3---3--|-2-------2------|-3-------2------|
E|----------------|----------------|----------------|----------------|

Play 2x For Chorus.

You said I am young, I am yours, I am free, but I am flawed.
I am here, in your heart, I was here from the start.

Bridge:

e|---------3-0----|----------------|----------------|----------------|
B|-1--------------|-1-------3-1----|-1-------0------|-1-------1------|
G|----------------|----------------|---0---0---0---0|---0---0---0---0|
D|---3---3-------3|---2---2-------2|-----0-------0--|-----2-------0--|
A|-0---0---0---0--|-3---3---3---3--|-2-------2------|-3-------2------|
E|----------------|----------------|----------------|----------------|

Play 4x for Bridge.

Then when the rain came, and settled on your skin.
Lord, like before when you let it all in.
Til your heart, was the only part.

Chorus 3:

e|----------------|----------------|----------------|----------------|
B|-1--------------|-1--------------|-1-------0------|-1-------1------|
G|----------------|----------------|---0---0---0---0|---0---0---0---0|
D|---3---3---3---3|---2---2---2---2|-----0-------0--|-----2-------0--|
A|-0---0---0---0--|-3---3---3---3--|-2-------2------|-3-------2------|
E|----------------|----------------|----------------|----------------|

Play 2x For Chorus.

You said I am young, I am yours, I am free, but I am flawed.
I am here, in your heart, I was here from the start.

Finish it off when a few more last notes or by strumming the
variations of the C and Am chords the tabs make. Either way its
an amazing song by an amazing artist.
Have fun!
            
Submit corrections


        Box Of Stones lessons Hard to play? Try these video lessons and learn fast Box Of Stones lessons
        
↑ Back to top | Tablatures and chords for acoustic guitar and electric guitar, ukulele, drums are parodies/interpretations of the original songs. You may use it for private study, scholarship, research or language learning purposes only