» » »

Benjamin Francis Leftwich - Mayflies Tabs

Artists:  A B C D E F G H I J K L M N O P Q R S T U V W X Y Z # 

Mayflies Tabs

(ver. 1) Click to play this song!
Benjamin Francis Leftwich
 Rating:
4.3/5 (24 votes)

 Mayflies  lessons Tabs too difficult? Try these video lessons and learn fast
 
                [Intro & Verse]

Chords: C G C G
e|---------------------------------------------------------------------------|
B|------3---------------3---------------3---------------3--------------------|
G|--0-------0---0---0-------0---0---0-------0---0---0-------0---0------------|
D|---------------------------------------------------------------------------|
A|3---3---3---3---3---3---3---3----------------------------------------------|
E|--------------------------------3---3---3---3---3---3---3---3--------------|

e|---------------------------------------------------------------------------|
B|------3---------------3---------------3---------------3--------------------|
G|--0-------0---0---0-------0---0---0-------0---0---0-------0---0------------|
D|---------------------------------------------------------------------------|
A|3---3---3---3---3---3---3---3----------------------------------------------|
E|--------------------------------3---3---3---3---3---3---3---3--------------|

[Pre-Chorus]
(Chords: C G D Em)
(Single strum)

             C                               G       
In another life, like mayflies, we'll take over the sky
             D               Em 
In another world, away from here


[Chorus]

Chords: C G D Em
e|---------------------------------------------------------------------------|
B|------3---------------3---------------3---------------3--------------------|
G|--0-------0---0---0-------0---0---0-------0---0---0-------0---0------------|
D|---------------------------------------------------------------------------|
A|3---3---3---3---3---3---3---3----------------------------------------------|
E|--------------------------------3---3---3---3---3---3---3---3--------------|

e|---------------------------------------------------------------------------|
B|------3---------------3---------------3---------------3--------------------|
G|--2-------2---2---2-------2---2---0-------0---0---0-------0---0------------|
D|0---0---0---0---0---0---0---0----------------------------------------------|
A|---------------------------------------------------------------------------|
E|--------------------------------0---0---0---0---0---0---0---0--------------|            
Submit corrections


        Mayflies  lessons Hard to play? Try these video lessons and learn fast Mayflies  lessons
        
↑ Back to top | Tablatures and chords for acoustic guitar and electric guitar, ukulele, drums are parodies/interpretations of the original songs. You may use it for private study, scholarship, research or language learning purposes only