» » »

Ben&Ben - War Tabs

Artists:  A B C D E F G H I J K L M N O P Q R S T U V W X Y Z # 

War Tabs

(ver. 1) Click to play this song!
Ben&Ben
 Rating:
4.1/5 (31 vote)

 War lessons Tabs too difficult? Try these video lessons and learn fast
 
                Rhythm:
   1&2&3&4&1&2&3&4&   1&2&3&4&1&2&3&4&   1&2&3&4&1&2&3&4&   1&2&3&4&1&2&3&4&
e|-0--0--0----------|-0--0--0----------|------------------|------------------|
B|---------3--3--3--|---------3--3--3--|-3--3--3-1--1--1--|-3--3--3-1--------|
G|-0--0--0-0--0--0--|-0--0--0-0--0--0--|-0--0--0-0--0--0--|-0--0--0-0--------|
D|-2--2--2-0--0--0--|-2--2--2-0--0--0--|-0--0--0----------|-0--0--0-------0--|
A|------------------|------------------|---------3--3--3--|---------3---3----|
E|-1-------1--------|-1-------1--------|-0-------0--------|-0-------0--------|



[Intro]

e|-0---0----0-------------|-0---0----0-------------|------------------------|------------------------|
B|-------------3---3----3-|-------------3---3----3-|-3---3----3--1---1----1-|-3---3----3--1----------|
G|-0---0----0--0---0----0-|-0---0----0--0---0----0-|-0---0----0--0---0----0-|-0---0----0--0----------|
D|-2---2----2--0---0----0-|-2---2----2--0---0----0-|-0---0----0-------------|-0---0----0-----------0-|
A|------------------------|------------------------|-------------3---3----3-|-------------3-----3----|
E|-1-----------1----------|-1-----------1----------|-0-----------0----------|-0-----------0----------|



                                                                                              I want to
e|-0---0----0-------------|-0---0----0-------------|------------------------|------------------------|
B|-------------3---3----3-|-------------3---3----3-|-3---3----3--1---1----1-|-3---3----3--1----------|
G|-0---0----0--0---0----0-|-0---0----0--0---0----0-|-0---0----0--0---0----0-|-0---0----0--0----------|
D|-2---2----2--0---0----0-|-2---2----2--0---0----0-|-0---0----0-------------|-0---0----0-------------|
A|------------------------|------------------------|-------------3---3----3-|-------------3----------|
E|-1-----------1----------|-1-----------1----------|-0-----------0----------|-0-----------0----------|


[Verse 1]
    go                                and fight in this fight                                 I want to
e|-0---0----0-------------|-0---0----0-------------|------------------------|------------------------|
B|-------------3---3----3-|-------------3---3----3-|-3---3----3--1---1----1-|-3---3----3--1----------|
G|-0---0----0--0---0----0-|-0---0----0--0---0----0-|-0---0----0--0---0----0-|-0---0----0--0----------|
D|-2---2----2--0---0----0-|-2---2----2--0---0----0-|-0---0----0-------------|-0---0----0-------------|
A|------------------------|------------------------|-------------3---3----3-|-------------3----------|
E|-1-----------1----------|-1-----------1----------|-0-----------0----------|-0-----------0----------|



    be                                be more than just a child                                all these
e|-0---0----0-------------|-0---0----0-------------|------------------------|------------------------|
B|-------------3---3----3-|-------------3---3----3-|-3---3----3--1---1----1-|-3---3----3--1----------|
G|-0---0----0--0---0----0-|-0---0----0--0---0----0-|-0---0----0--0---0----0-|-0---0----0--0----------|
D|-2---2----2--0---0----0-|-2---2----2--0---0----0-|-0---0----0-------------|-0---0----0-----------0-|
A|------------------------|------------------------|-------------3---3----3-|-------------3-----3----|
E|-1-----------1----------|-1-----------1----------|-0-----------0----------|-0-----------0----------|


[Chorus]
   fears are around me they’re coming to get me but emotions will follow     words of tomorrow if  you
e|-0---0----0-------------|-0---0----0-------------|------------------------|------------------------|
B|-------------3---3----3-|-------------3---3----3-|-3---3----3--1---1----1-|-3---3----3--1----------|
G|-0---0----0--0---0----0-|-0---0----0--0---0----0-|-0---0----0--0---0----0-|-0---0----0--0----------|
D|-2---2----2--0---0----0-|-2---2----2--0---0----0-|-0---0----0-------------|-0---0----0-----------0-|
A|------------------------|------------------------|-------------3---3----3-|-------------3-----3----|
E|-1-----------1----------|-1-----------1----------|-0-----------0----------|-0-----------0----------|


   know this you get it you probably  felt it  today                         today
e|-0---0----0-------------|-0---0----0-------------|------------------------|------------------------|
B|-------------3---3----3-|-------------3---3----3-|-3---3----3--1---1----1-|-3---3----3--1----------|
G|-0---0----0--0---0----0-|-0---0----0--0---0----0-|-0---0----0--0---0----0-|-0---0----0--0----------|
D|-2---2----2--0---0----0-|-2---2----2--0---0----0-|-0---0----0-------------|-0---0----0-------------|
A|------------------------|------------------------|-------------3---3----3-|-------------3----------|
E|-1-----------1----------|-1-----------1----------|-0-----------0----------|-0-----------0----------|


oooooh                                            oooooh
e|-0---0----0-------------|-0---0----0-------------|------------------------|------------------------|
B|-------------3---3----3-|-------------3---3----3-|-3---3----3--1---1----1-|-3---3----3--1----------|
G|-0---0----0--0---0----0-|-0---0----0--0---0----0-|-0---0----0--0---0----0-|-0---0----0--0----------|
D|-2---2----2--0---0----0-|-2---2----2--0---0----0-|-0---0----0-------------|-0---0----0-------------|
A|------------------------|------------------------|-------------3---3----3-|-------------3----------|
E|-1-----------1----------|-1-----------1----------|-0-----------0----------|-0-----------0----------|


oooooh                                            oooooh
e|-0---0----0-------------|-0---0----0-------------|------------------------|------------------------|
B|-------------3---3----3-|-------------3---3----3-|-3---3----3--1---1----1-|-3---3----3--1----------|
G|-0---0----0--0---0----0-|-0---0----0--0---0----0-|-0---0----0--0---0----0-|-0---0----0--0----------|
D|-2---2----2--0---0----0-|-2---2----2--0---0----0-|-0---0----0-------------|-0---0----0-------------|
A|------------------------|------------------------|-------------3---3----3-|-------------3----------|
E|-1-----------1----------|-1-----------1----------|-0-----------0----------|-0-----------0----------|


[Violin Solo]

e|-0---0----0-------------|-0---0----0-------------|------------------------|------------------------|
B|-------------3---3----3-|-------------3---3----3-|-3---3----3--1---1----1-|-3---3----3--1---1------|
G|-0---0----0--0---0----0-|-0---0----0--0---0----0-|-0---0----0--0---0----0-|-0---0----0--0---0------|
D|-2---2----2--0---0----0-|-2---2----2--0---0----0-|-0---0----0-------------|-0---0----0-------------|
A|------------------------|------------------------|-------------3---3----3-|-------------3---3------|
E|-1-----------1----------|-1-----------1----------|-0-----------0----------|-0-----------0---0------|


                                                                                           I want to see
e|-0---0----0-------------|-0---0----0-------------|------------------------|------------------------|
B|-------------3---3----3-|-------------3---3----3-|-3---3----3--1---1----1-|-3---3----3--1---1------|
G|-0---0----0--0---0----0-|-0---0----0--0---0----0-|-0---0----0--0---0----0-|-0---0----0--0---0------|
D|-2---2----2--0---0----0-|-2---2----2--0---0----0-|-0---0----0-------------|-0---0----0-------------|
A|------------------------|------------------------|-------------3---3----3-|-------------3---3------|
E|-1-----------1----------|-1-----------1----------|-0-----------0----------|-0-----------0---0------|


[Verse 2]
                                     a people of my kind                                    I want hear
e|-0---0----0-------------|-0---0----0-------------|------------------------|------------------------|
B|-------------3---3----3-|-------------3---3----3-|-3---3----3--1---1----1-|-3---3----3--1---1----1-|
G|-0---0----0--0---0----0-|-0---0----0--0---0----0-|-0---0----0--0---0----0-|-0---0----0--0---0----0-|
D|-2---2----2--0---0----0-|-2---2----2--0---0----0-|-0---0----0-------------|-0---0----0------0----0-|
A|------------------------|------------------------|-------------3---3----3-|-------------3----------|
E|-1-----------1----------|-1-----------1----------|-0-----------0----------|-0-----------0---0----0-|


                                     the marching sound of love                                all these
e|-0---0----0-------------|-0---0----0-------------|------------------------|------------------------|
B|-------------3---3----3-|-------------3---3----3-|-3---3----3--1---1----1-|-3---3----3--1----------|
G|-0---0----0--0---0----0-|-0---0----0--0---0----0-|-0---0----0--0---0----0-|-0---0----0--0----------|
D|-2---2----2--0---0----0-|-2---2----2--0---0----0-|-0---0----0-------------|-0---0----0-----------0-|
A|------------------------|------------------------|-------------3---3----3-|-------------3-----3----|
E|-1-----------1----------|-1-----------1----------|-0-----------0----------|-0-----------0----------|


[Chorus]
   fears are around me they’re coming to get me but emotions will follow     words of tomorrow if  you
e|-0---0----0-------------|-0---0----0-------------|------------------------|------------------------|
B|-------------3---3----3-|-------------3---3----3-|-3---3----3--1---1----1-|-3---3----3--1----------|
G|-0---0----0--0---0----0-|-0---0----0--0---0----0-|-0---0----0--0---0----0-|-0---0----0--0----------|
D|-2---2----2--0---0----0-|-2---2----2--0---0----0-|-0---0----0-------------|-0---0----0-----------0-|
A|------------------------|------------------------|-------------3---3----3-|-------------3-----3----|
E|-1-----------1----------|-1-----------1----------|-0-----------0----------|-0-----------0----------|


   know this you get it you probably  felt it  today                         today
e|-0---0----0-------------|-0---0----0-------------|------------------------|------------------------|
B|-------------3---3----3-|-------------3---3----3-|-3---3----3--1---1----1-|-3---3----3--1----------|
G|-0---0----0--0---0----0-|-0---0----0--0---0----0-|-0---0----0--0---0----0-|-0---0----0--0----------|
D|-2---2----2--0---0----0-|-2---2----2--0---0----0-|-0---0----0-------------|-0---0----0-------------|
A|------------------------|------------------------|-------------3---3----3-|-------------3----------|
E|-1-----------1----------|-1-----------1----------|-0-----------0----------|-0-----------0----------|


oooooh                                            oooooh
e|-0---0----0-------------|-0---0----0-------------|------------------------|------------------------|
B|-------------3---3----3-|-------------3---3----3-|-3---3----3--1---1----1-|-3---3----3--1----------|
G|-0---0----0--0---0----0-|-0---0----0--0---0----0-|-0---0----0--0---0----0-|-0---0----0--0----------|
D|-2---2----2--0---0----0-|-2---2----2--0---0----0-|-0---0----0-------------|-0---0----0-------------|
A|------------------------|------------------------|-------------3---3----3-|-------------3----------|
E|-1-----------1----------|-1-----------1----------|-0-----------0----------|-0-----------0----------|


oooooh                                            oooooh
e|-0---0----0-------------|-0---0----0-------------|------------------------|------------------------|
B|-------------3---3----3-|-------------3---3----3-|-3---3----3--1---1----1-|-3---3----3--1----------|
G|-0---0----0--0---0----0-|-0---0----0--0---0----0-|-0---0----0--0---0----0-|-0---0----0--0----------|
D|-2---2----2--0---0----0-|-2---2----2--0---0----0-|-0---0----0-------------|-0---0----0-------------|
A|------------------------|------------------------|-------------3---3----3-|-------------3----------|
E|-1-----------1----------|-1-----------1----------|-0-----------0----------|-0-----------0----------|


[Violin Solo]

e|-0---0----0-------------|-0---0----0-------------|------------------------|------------------------|
B|-------------3---3----3-|-------------3---3----3-|-3---3----3--1---1----1-|-3---3----3--1----------|
G|-0---0----0--0---0----0-|-0---0----0--0---0----0-|-0---0----0--0---0----0-|-0---0----0--0----------|
D|-2---2----2--0---0----0-|-2---2----2--0---0----0-|-0---0----0-------------|-0---0----0-------------|
A|------------------------|------------------------|-------------3---3----3-|-------------3----------|
E|-1-----------1----------|-1-----------1----------|-0-----------0----------|-0-----------0----------|



e|-0---0----0-------------|-0---0----0-------------|------------------------|------------------------|
B|-------------3---3----3-|-------------3---3----3-|-3---3----3--1---1----1-|-3---3----3--1----------|
G|-0---0----0--0---0----0-|-0---0----0--0---0----0-|-0---0----0--0---0----0-|-0---0----0--0----------|
D|-2---2----2--0---0----0-|-2---2----2--0---0----0-|-0---0----0-------------|-0---0----0-------------|
A|------------------------|------------------------|-------------3---3----3-|-------------3----------|
E|-1-----------1----------|-1-----------1----------|-0-----------0----------|-0-----------0----------|



e|-0---0----0-------------|-0---0----0-------------|------------------------|------------------------|
B|-------------3---3----3-|-------------3---3----3-|-3---3----3--1---1----1-|-3---3----3--1----------|
G|-0---0----0--0---0----0-|-0---0----0--0---0----0-|-0---0----0--0---0----0-|-0---0----0--0----------|
D|-2---2----2--0---0----0-|-2---2----2--0---0----0-|-0---0----0-------------|-0---0----0-------------|
A|------------------------|------------------------|-------------3---3----3-|-------------3----------|
E|-1-----------1----------|-1-----------1----------|-0-----------0----------|-0-----------0----------|



e|-0---0----0-------------|-0---0----0-------------|------------------------|------------------------|
B|-------------3---3----3-|-------------3---3----3-|-3---3----3--1---1----1-|-3---3----3--1----------|
G|-0---0----0--0---0----0-|-0---0----0--0---0----0-|-0---0----0--0---0----0-|-0---0----0--0----------|
D|-2---2----2--0---0----0-|-2---2----2--0---0----0-|-0---0----0-------------|-0---0----0-----------0-|
A|------------------------|------------------------|-------------3---3----3-|-------------3---3------|
E|-1-----------1----------|-1-----------1----------|-0-----------0----------|-0-----------0----------|



e|-0---0----0-------------|-0---0----0-------------|------------------------|------------------------|
B|-------------3---3----3-|-------------3---3----3-|-3---3----3--1---1----1-|-3---3----3--1----------|
G|-0---0----0--0---0----0-|-0---0----0--0---0----0-|-0---0----0--0---0----0-|-0---0----0--0----------|
D|-2---2----2--0---0----0-|-2---2----2--0---0----0-|-0---0----0-------------|-0---0----0-------------|
A|------------------------|------------------------|-------------3---3----3-|-------------3----------|
E|-1-----------1----------|-1-----------1----------|-0-----------0----------|-0-----------0----------|


oooooh                                            oooooh
e|-0---0----0-------------|-0---0----0-------------|------------------------|------------------------|
B|-------------3---3----3-|-------------3---3----3-|-3---3----3--1---1----1-|-3---3----3--1----------|
G|-0---0----0--0---0----0-|-0---0----0--0---0----0-|-0---0----0--0---0----0-|-0---0----0--0----------|
D|-2---2----2--0---0----0-|-2---2----2--0---0----0-|-0---0----0-------------|-0---0----0-------------|
A|------------------------|------------------------|-------------3---3----3-|-------------3----------|
E|-1-----------1----------|-1-----------1----------|-0-----------0----------|-0-----------0----------|


oooooh                                            oooooh
e|-0---0----0-------------|-0---0----0-------------|------------------------|------------------------|
B|-------------3---3----3-|-------------3---3----3-|-3---3----3--1---1----1-|-3---3----3--1----------|
G|-0---0----0--0---0----0-|-0---0----0--0---0----0-|-0---0----0--0---0----0-|-0---0----0--0----------|
D|-2---2----2--0---0----0-|-2---2----2--0---0----0-|-0---0----0-------------|-0---0----0-------------|
A|------------------------|------------------------|-------------3---3----3-|-------------3----------|
E|-1-----------1----------|-1-----------1----------|-0-----------0----------|-0-----------0----------|
            
Submit corrections


        War lessons Hard to play? Try these video lessons and learn fast War lessons
        
↑ Back to top | Tablatures and chords for acoustic guitar and electric guitar, ukulele, drums are parodies/interpretations of the original songs. You may use it for private study, scholarship, research or language learning purposes only