» » »

Belle And Sebastian - I Didnt See It Coming Tabs

Artists:  A B C D E F G H I J K L M N O P Q R S T U V W X Y Z # 

I Didnt See It Coming Tabs

(ver. 2) Click to play this song!
Belle And Sebastian
 Rating:
4.3/5 (10 votes)

 I Didnt See It Coming lessons Tabs too difficult? Try these video lessons and learn fast
 
                [Intro] 

00:52
e|---------------------------------------------------------------------------|
B|---------------------------------------------------------------------------|
G|------------------10-7--9-------------10-9-7-------------------------------|
D|-------10----7-10--------------7--10----------9----------------------------|
A|----------10---------------10-------------------10-------------------------|
E|---------------------------------------------------------------------------|

01:07
e|---------------------------------------------------------------------------|
B|---------------------------------------------------------------------------|
G|------------------10-7--9-------------10-9-7-------------------------------|
D|-------10----7-10--------------7--10----------9----------------------------|
A|----------10---------------10-------------------10-------------------------|
E|---------------------------------------------------------------------------|

01:46
e|---------------------------------------------------------------------------|
B|---------------------------------------------------------------------------|
G|------------------10-7--9-------------10-9-7-------------------------------|
D|-------10----7-10--------------7--10----------9----------------------------|
A|----------10---------------10-------------------10-------------------------|
E|---------------------------------------------------------------------------|            
Submit corrections


        I Didnt See It Coming lessons Hard to play? Try these video lessons and learn fast I Didnt See It Coming lessons
        
↑ Back to top | Tablatures and chords for acoustic guitar and electric guitar, ukulele, drums are parodies/interpretations of the original songs. You may use it for private study, scholarship, research or language learning purposes only