Home » B » Belanova »

Belanova - Hasta El Final Bass

Artists:  A B C D E F G H I J K L M N O P Q R S T U V W X Y Z # 

Hasta El Final Bass

(ver. 1) Click to play this song!
Belanova
Esta es una cancion de belanova, espero y les sirva...

Disfrutenla

Belanova - Hasta el final

  Tu sabes que te quiero...
E -5------5--------------------------------5-|
A ----3-7-----11-9-7-----7-----7-----7---7---|
G -------------------9-9---9-9---9-9---5-----|
D -------------------------------------------|

  Porque a pesar de todo...
E ---------------5------------------------------5-|
A ---------5-7-7---11-9-7-----7-----7-----7---7---|
G -7-5-4-7----------------9-9---9-9---9-9---5-----|
D ------------------------------------------------|


E -----5--5-7-----|
A -7-7--------3-7-|
G ----------------|
D ----------------|

  Tu sabes que me dueles...
E -----------------------------------------5-----5-|
A -5-------------3-------------7-----7---7-----7---|
G ----3-7-5---------1-5-3--------9-9---5-----5-----|
D -----------3-7-----------1-5---------------------|

  Tu sabes que me dueles...
E -5-7-------|-----------------------------------------5-----5-|
A -----3-7-5-|-5-------------3-------------7-----7---7-----7---|
G -----------|----3-7-5---------1-5-3--------9-9---5-----5-----|
D -----------|-----------3-7-----------1-5---------------------|

  Tu sabes lo que siento...
E -----5-----5-----5------------------------------5-|
A ---7-----7---3-7---11-9-7-----7-----7-----7---7---|
G -9-----9------------------9-9---9-9---9-9---5-----|
D --------------------------------------------------|

  Porque a pesar de todo...
E -----5-----5-----5-------------------------------5-|
A -3-7---3-7---3-7----11-9-7-----7-----7-----7---7---|
G ---------------------------9-9---9-9---9-9---5-----|
D ---------------------------------------------------|


E -----5--5-7-----|
A -7-7--------3-7-|
G ----------------|
D ----------------|

  Tu sabes que me dueles...
E -----------------------------------------5-----5-|
A -5-------------3-------------7-----7---7-----7---|
G ----3-7-5---------1-5-3--------9-9---5-----5-----|
D -----------3-7-----------1-5---------------------|

  Tu sabes que me dueles...
E -----5--5-7-------|-----------------------------------------5-----5-|
A -3-7--------3-7-5-|-5-------------3-------------7-----7---7---7-7---|
G ------------------|----3-7-5---------1-5-3--------9-9---5-----------|
D ------------------|-----------3-7-----------1-5---------------------|

 llorare hasta que
E -5-7-------|-----------------------------------------5-----5-|
A -----3-7-5-|-5-------------3-------------7-----7---7---7-7---|
G -----------|----3-7-5---------1-5-3--------9-9---5-----------|
D -----------|-----------3-7-----------1-5---------------------|

 Tu sabes que me dueles
E -----------------------------------------5-----5-----5-|
A -5-------------3-------------7-----7---7---3-7---5-5---|
G ----3-7-5---------1-5-3--------9-9---5-----------------|
D -----------3-7-----------1-5---------------------------|

  Final
E ---------|
A -7-5-3-0-|
G ---------|
D ---------|
            
Submit corrections

↑ Back to top | Tablatures and chords for acoustic guitar and electric guitar, ukulele, drums are parodies/interpretations of the original songs. You may use it for private study, scholarship, research or language learning purposes only