» » »

Behemoth - Nephilim Rising Tabs

Artists:  A B C D E F G H I J K L M N O P Q R S T U V W X Y Z # 

Nephilim Rising Tabs

(ver. 1) Click to play this song!
Behemoth
 Rating:
4/5 (4 votes)


 Nephilim Rising lessons Tabs too difficult? Try these video lessons and learn fast
 
                Part A (Play twice)

|-------------------------------------------------------------------|
|-------------------------------------------------------------------|
|-------------------------------------------------------------------|
|-------------------------------------------------|
|-2-------------2-------------2-------------------|
|-0----------0-5-4-2--0----------0-5-4-2--0-----------0-5-4-2-------|

|---------------------------------|--Continue on second ending, as--|
|---------------------------------|--shown below--------------------|
|---------------------------------|---------------------------------|
|---------------------------------|---------------------------------|
|-2--------------2----------------|-2--------------2----------------|
|-0-5-5-2-2-4-4--0-5-5-2-2-4-4----|-0-5-5-2-2-4-4--0-5-5-2-2-4-4----|


Part B

|----------------------------------------------------|guitar 2 does--|
|----------------------------------------------------|-pick slide----|
|----------------------------------------------------|---------------|
|-------7---5---5---7---8---5---7--------11--10--5---|-7---8---5---7-|
|-2-----5---6---3---5---6---3---5--2-----9---8---3---|-5---6---3---5-|
|-0-0-0---0---0---0---0---0---0----0-0-0---0---0---0-|---0---0---0---|

Part C

|-------------------------------------------------------------------|
|-------------------------------------------------------------------|
|-------------------------------------------------------------------|
|-------7---5---5---7---8---5---------------------------------------|
|-2-----5---6---3---5---6---3----2ph~-------------------------------|
|-0-0-0---0---0---0---0---0---0-------------------------------------|

|-------------------------------------------------------------------|
|-------------------------------------------------------------------|
|----7 times--------4-------3----5/7--7--7/8------------------------|
|--/---------\----/----\---/-\--------------------------------------|
|-2-2-2-2-2-2-2--2-2-2-2--2-2-2--3/5--5--5/6------------------------|
|-0-0-0-0-0-0-0--0-0-0-0--0-0-0-------------------------------------|


Part D (Verse) play twice:

|-------------------------------------------------------------------|
|-------------------------------------------------------------------|
|-------------------------------------------------------------------|
|-------7----5----5----7----8----5----------------------------------|
|-2-----5----6----3----5----6----3----2ph~--------------------------|
|-0-0-0---0-0--0-0--0-0--0-0--0-0--0-0------------------------------|

|-------------------------------------------------------------------|
|-------------------------------------------------------------------|
|-------------------------------------------------------------------|
|-------11----10----5-----7-----8-----5-----7~----------------------|
|-2-----9-----8-----3-----5-----6-----3-----5~----------------------|
|-0-0-0---0-0---0-0---0-0---0-0---0-0---0-0-------------------------|

|-------------------------------------------------------------------|
|-------------------------------------------------------------------|
|-------------------------------------------------------------------|
|-------7----5----5----7----8----5----------------------------------|
|-2-----5----6----3----5----6----3----2ph~--------------------------|
|-0-0-0---0-0--0-0--0-0--0-0--0-0--0-0------------------------------|

|-------------------------------------------------------------------|
|-------------------------------------------------------------------|
|----7 times--------4-------3----5/7--7--7/8------------------------|
|--/---------\----/----\---/-\--------------------------------------|
|-2-2-2-2-2-2-2--2-2-2-2--2-2-2--3/5--5--5/6------------------------|
|-0-0-0-0-0-0-0--0-0-0-0--0-0-0-------------------------------------|

Then:

|-------------------------------------------------------------------|
|-------------------------------------------------------------------|
|----7 times--------4------2---11/10--10/7--------------------------|
|--/---------\----/----\--/-\---------------------------------------|
|-2-2-2-2-2-2-2--2-2-2-2--2-2---9/8----8/5--------------------------|
|-0-0-0-0-0-0-0--0-0-0-0--0-0---------------------------------------|


Part E (play twice):

|-------------------------------------------------------------------|
|-------------------------------------------------------------------|
|-------------------------------------------------------------------|
|--8----/---11-----------------8----/---11--------------------------|
|--8----/---11-----------------8----/---11----11-10--8-10--8-6------|
|--6----/---9----9-8-6-8ph~----6----/---9-----9--8---6-8---6-4------|

Then:

|-------------------------------------------------------------------|
|-------------------------------------------------------------------|
|-------------------------------------------------------------------|
|--8----/---11----------------------------------------------|
|--8----/---11---------------------------------------|
|--6----/---9-------------------------------------------------------|

|-------------------------------------------------------------------|
|-------------------------------------------------------------------|
|-------------------------------------------------------------------|
|--8---/----11------------------------------------------------------|
|--8---/----11--------------------------------|
|--6---/----9-------------------------------------------------------|

|-------------------------------------------------------------------|
|-------------------------------------------------------------------|
|-------------------------------------------------------------------|
|--8----/---11----------------------------------------------|
|--8----/---11---------------------------------------|
|--6----/---9-------------------------------------------------------|

|-------------------------------------------------------------------|
|-------------------------------------------------------------------|
|-------------------------------------------------------------------|
|--8----/---11------------------------------------------------------|
|--8----/---11---11-9-11-12-11-9~-----------------------------------|
|--6----/---9-------------------------------------------------------|

Play Part E twice
Play Part B
Play Part C
Play Part D (verse) twice

Then:

|-------------------------------------------------------------------|
|---7 times---------4-------3---------------------------------------|
|--/--------\-----/---\----/-\---11/10-10/7--7----------------------|
|-------------------------------------------------------------------|
|-2-2-2-2-2-2-2--2-2-2-2--2-2-2---9/ 8-8/ 5--5----------------------|
|-0-0-0-0-0-0-0--0-0-0-0--0-0-0-------------------------------------|

|-------------------------------------------------------------------|
|-------------------------------------------------------------------|
|----7 times--------4-------3----5/7--7--7/8------------------------|
|--/---------\----/----\---/-\--------------------------------------|
|-2-2-2-2-2-2-2--2-2-2-2--2-2-2--3/5--5--5/6------------------------|
|-0-0-0-0-0-0-0--0-0-0-0--0-0-0-------------------------------------|

|-------------------------------------------------------------------|
|---7 times---------4-------3---------------------------------------|
|--/--------\-----/---\----/-\---11/10-10/7--7----------------------|
|-2-2-2-2-2-2-2--2-2-2-2--2-2-2-------------------------------------|
|-2-2-2-2-2-2-2--2-2-2-2--2-2-2---9/ 8-8/ 5--5----------------------|
|-0-0-0-0-0-0-0--0-0-0-0--0-0-0-------------------------------------|

Part F:

|-------------------------------------------------------------------|
|-------------------------------------------------------------------|
|-7-------7-------7-------7-8-5-8-------8-------8-------7-8-5-------|
|-------------------------------------------------------------------|
|-5-------5-------5-------5-6-3-6-------6-------6-------5-6-3-------|
|---0-0-0---0-0-0---0-0-0---------0-0-0---0-0-0---0-0-0-------------|

Part G (also to be played under solo):

|-------------------------------------------------------------------|
|-------------------------------------------------------------------|
|-------------------------------------------------------------------|
|-------------------------------------------------------------------|
|-2---------------------2----------9--10-7--------------------------|
|-0-0-0-0-0-[23232etc.]-0-0-0-0-0--7--8--5--------------------------|

END
dziękuję :P
            
Submit corrections



        Nephilim Rising lessons Hard to play? Try these video lessons and learn fast Nephilim Rising lessons
        
↑ Back to top | Tablatures and chords for acoustic guitar and electric guitar, ukulele, drums are parodies/interpretations of the original songs. You may use it for private study, scholarship, research or language learning purposes only