» » »

Behemoth - The Alchemist's Dream Tabs

Artists:  A B C D E F G H I J K L M N O P Q R S T U V W X Y Z # 

The Alchemist's Dream Tabs

(ver. 1) Click to play this song!
Behemoth
 Rating:
4/5 (4 votes)

 The Alchemist's Dream lessons Tabs too difficult? Try these video lessons and learn fast
 
                Tuning:    E

Key:
/ \=slide
p=pull off
h=hammer on
~=vibrato
·=muted
"=repeat

RIFF 1A
Guitar 1
|----------------------------|
|--------10"----11"-----8"---|
|--7"------------------------|
|----------------------------|
|----------------------------|
|----------------------------|
Guitar 2
|----------------------------|
|----------------------------|
|----------------------------|
|--2"------------------------|
|--2"------------------------|
|--0"------------------------|
   ·

RIFF 1B
Guitar 1
|----------------------------|
|--------10"----11"-----8"---|
|--7"------------------------|
|----------------------------|
|----------------------------|
|----------------------------|
Guitar 2
|----------------------------|
|----------------------------|
|--------5~------7~----------|
|--2~----5~------7~-----6~---|
|--2~----3~------5~-----6~---|
|--0~-------------------4~---|


RIFF 1C
Guitar 1
|----------------------------|
|--------10"----11"-----8"---|
|--7"------------------------|
|----------------------------|
|----------------------------|
|----------------------------|
Guitar 2
|----------------------------|
|----------------------------|
|--------5~------7~----------|
|--2~----5~------7~-----6~---|
|--2~----3~------5~-----6~---|
|--0~-0"----0"------0"--4~---|
      ·     ·       ·


RIFF 2A
Guitar 1
|--------------------------------------------------------------------|
|--------------------------------------------------------------------|
|--7"----------------------------------------10-8-7-10-7-------------|
|--------------------------------------------------------------------|
|--------------------------------------------------------------------|
|--------------------------------------------------------------------|
Guitar2
|--------------------------------------------------------------------|
|--------------------------------------------------------------------|
|--7-----8--8-7------8--8-7-------8--8-7------10-8-7-5-7-------------|
|--7-----8--8-7------8--8-7-------8--8-7------10-8-7-5-7-------------|
|--5-----6--6-5------6--6-5-------6--6-5------8--6-5-3-5-------------|
|--------------------------------------------------------------------|



RIFF 2B
Guitar 1
|--------------------------------------------------------------------|
|--------------------------------------------------------------------|
|--7"----------------------------------------10-8-7-10-7-------------|
|--------------------------------------------------------------------|
|--------------------------------------------------------------------|
|--------------------------------------------------------------------|
Guitar2
|--------------------------------------------------------------------|
|--------------------------------------------------------------------|
|--7-----8--8-7------8--8-7-------8--8-7------10-8-7-5-7-------------|
|--7-----8--8-7------8--8-7-------8--8-7------10-8-7-5-7-------------|
|--5-----6--6-5------6--6-5-------6--6-5------8--6-5-3-5-------------|
|----0"---------0"----------0"-----------0"--------------------------|


RIFF 1C

RIFF 2A
RIFF 2B


RIFF 3
Guitar 1
|-----------------------------------|
|-----------------------------10"---|
|-7"-------8"-------10"-------------|
|-----------------------------------|
|-----------------------------------|
|-----------------------------------|
Guitar 2
|-----------------------------------|
|-----------------------------------|
|-7"-------8"-------10"-------14"---|
|-7"-------8"-------10"-------14"---|
|-5"-------6"-------8"--------12"---|
|-----------------------------------|

RIFF 4
|----|
|----|
|-7~-|
|-7~-|
|-5~-|
|----|


Song Composition

RIFF 1A (x4)
RIFF 1B (x4)
RIFF 1C (x4)

RIFF 2A (x1)
RIFF 2B (x4)

RIFF 1C (x4)

RIFF 2A (x1)
RIFF 2B (x4)

RIFF 1C (x4)

RIFF 3  (x4)
RIFF 4  (x1)
            
Submit corrections


        The Alchemist's Dream lessons Hard to play? Try these video lessons and learn fast The Alchemist's Dream lessons
        
↑ Back to top | Tablatures and chords for acoustic guitar and electric guitar, ukulele, drums are parodies/interpretations of the original songs. You may use it for private study, scholarship, research or language learning purposes only