Home » B » Behemoth »

Behemoth - Ov Fire And The Void Bass

Artists:  A B C D E F G H I J K L M N O P Q R S T U V W X Y Z # 

Ov Fire And The Void Bass

(ver. 1) Click to play this song!
Behemoth
 Rating:
4/5 (4 votes)
                Band: Behemoth
Bassist: Tomasz Wróblewski "Orion"
Tuning: C# tuning

Intro

E |--------------|
B |--------------| x4
F#|--------------|
C#|-0---11111111-|

E |-----------------------------|
B |-----------------------------| x3
F#|-----------------------------|
C#|-0--0000000-0000000-11111111-|

E |-------------------------------|
B |-------------------------------|
F#|-------------------------------|
C#|-0--0000000-0000000-11111111-0-|

E |--------------|
B |--------------|
F#|-6-3-6--3-2-3-|
C#|--------------|

Verse 1

E |-------------------------|
B |-------------------------| x3
F#|-----------------6-6-6-6-|
C#|-0--0-0-0--0-0-0---------|

E |------------------------|
B |------------------------|
F#|-----------6-3-6--3-2-3-|
C#|-0--0-0-0---------------|

E |-------------------------|
B |-------------------------| x3
F#|-----------------6-6-6-6-|
C#|-0--0-0-0--0-0-0---------|

E |------------------------|
B |------------------------|
F#|-----------6-3-6--3-2-3-|
C#|-0--0-0-0---------------|

E |------------------2---|-----------------------|
B |----------------4---4-|-----------------------|
F#|-1---1----------------|-1---1----------7-10-7-|
C#|---3----3-2-3-2-------|---3----3-2-3-0--------|

E |------------------2--------------------------|
B |----------------4---4------------------------|
F#|-1---1---------------------------------------|
C#|---3----3-2-3-2---------000-000-000-000-3--2-|

E |------------------2---|-----------------------|
B |----------------4---4-|-----------------------|
F#|-1---1----------------|-1---1----------7-10-7-|
C#|---3----3-2-3-2-------|---3----3-2-3-0--------|

E |------------------2--------------------------|
B |----------------4---4------------------------|
F#|-1---1---------------------------------------|
C#|---3----3-2-3-2---------000-000-000-000-3--2-|

Verse 2

E |-------------------------|
B |-------------------------| x3
F#|-----------------6-6-6-6-|
C#|-0--0-0-0--0-0-0---------|

E |------------------------|
B |------------------------|
F#|-----------6-3-6--3-2-3-|
C#|-0--0-0-0---------------|

E |-------------------------|
B |-------------------------| x3
F#|-----------------6-6-6-6-|
C#|-0--0-0-0--0-0-0---------|

E |------------------------|
B |------------------------|
F#|-----------6-3-6--3-2-3-|
C#|-0--0-0-0---------------|

E |-----------------------------|
B |-----------------------------| x3
F#|-----------------------------|
C#|-0--0000000-0000000-11111111-|

E |----------------------------|
B |----------------------------|
F#|-777666--666---667779997710-|
C#|-------88---888-------------|

E |-----------------------------|
B |-----------------------------| x3
F#|-----------------------------|
C#|-0--0000000-0000000-11111111-|

E |----------------------------|
B |----------------------------|
F#|-777666--666---667779997710-|
C#|-------88---888-------------|

Verse 3

E |---44444444333333333333----3333-----------------------------|
B |-----------------------5555----55554444555522224444----2222-|
F#|---------------------------------------------------3333-----|
C#|-0----------------------------------------------------------|

E |---44444444333333333333----3333-----------------------------|
B |-----------------------5555----55554444555522224444---------|
F#|---------------------------------------------------33333333-|
C#|-0----------------------------------------------------------|

E |---44444444333333333333----3333-----------------------------|
B |-----------------------5555----55554444555522224444----2222-|
F#|---------------------------------------------------3333-----|
C#|-3----------------------------------------------------------|

E |------|
B |------|
F#|------|
C#|-4--1-|

E |---44444444333333333333----3333-----------------------------|
B |-----------------------5555----55554444555522224444----2222-|
F#|---------------------------------------------------3333-----|
C#|-0----------------------------------------------------------|

E |---44444444333333333333----3333-----------------------------|
B |-----------------------5555----55554444555522224444---------|
F#|---------------------------------------------------33333333-|
C#|-0----------------------------------------------------------|

E |---44444444333333333333----3333-----------------------------|
B |-----------------------5555----55554444555522224444----2222-|
F#|---------------------------------------------------3333-----|
C#|-3----------------------------------------------------------|

E |------|
B |------|
F#|------|
C#|-4--1-|

Guitar solo

E |-------------------------|
B |-------------------------| x3
F#|-----------------6-6-6-6-|
C#|-0--0-0-0--0-0-0---------|

E |---------------------------|
B |---------------------------|
F#|-----------------6-6-6-6---|
C#|-0--0-0-0--0-0-0---------0-|

E |----------------|
B |----------------|
F#|-6-3-6--3-2-3---|
C#|--------------0-|

Outro

E |--------------|
B |--------------|
F#|-6-3-6--3-2-3-|
C#|--------------|

E |-------------------------------|
B |-------------------------------| x3
F#|---7---7---7---7---7---6-6-6-6-|
C#|-0---0---0---0---0---0---------|

E |--------------------------------|
B |--------------------------------|
F#|---7---7---7---7---6-3-6--3-2-3-|
C#|-0---0---0---0---0--------------|

E |-------------------------------|
B |-------------------------------| x3
F#|---7---7---7---7---7---6-6-6-6-|
C#|-0---0---0---0---0---0---------|

E |--------------------------------|
B |--------------------------------|
F#|---7---7---7---7---6-3-6--3-2-3-|
C#|-0---0---0---0---0--------------|
            
Submit corrections

↑ Back to top | Tablatures and chords for acoustic guitar and electric guitar, ukulele, drums are parodies/interpretations of the original songs. You may use it for private study, scholarship, research or language learning purposes only