» » »

Behemoth - In Thy Pandemaeternum Tabs

Artists:  A B C D E F G H I J K L M N O P Q R S T U V W X Y Z # 

In Thy Pandemaeternum Tabs

(ver. 1) Click to play this song!
Behemoth
 Rating:
4/5 (4 votes)

 In Thy Pandemaeternum lessons Tabs too difficult? Try these video lessons and learn fast
 
                ********************************************
                 *      BEHEMOTH:IN THY PANDEMAETERNUM      *
                 *               Date:30-03-98              *
                 ********************************************

        F5          C5       Cis/Des5       G          F5-2      Fis/Ges5
   |-|-|-|-|-|0|-|-|-|-|-|3|-|-|-|-|-|4|-|-|-|-|-|3|-|-|-|-|-|3|-|-|-|-|-|4
   * | | | | | | * | | | | | * | | | | | * | | | | | | * | | | | | * | | |
   |-|-|-|-|-| |-|-|-|-|-| |-|-|-|-|-| |-|-|-|-|-| |-|-|-|-|-| |-|-|-|-|-|
   | | | | | | | | | | | | | | | | | | | | | | * | | | | | | | | | | | | |
   |-|-|-|-|-| |-|-|-|-|-| |-|-|-|-|-| |-|-|-|-|-| |-|-|-|-|-| |-|-|-|-|-|
   | * * | | | | | * * | | | | * * | | | | * * | | | | | * | | | | | * | |
   |-|-|-|-|-| |-|-|-|-|-| |-|-|-|-|-| |-|-|-|-|-| |-|-|-|-|-| |-|-|-|-|-|
   | | | | | | | | | | | | | | | | | | | | | | | | | | | | | | | | | | | |
   |-|-|-|-|-| |-|-|-|-|-| |-|-|-|-|-| |-|-|-|-|-| |-|-|-|-|-| |-|-|-|-|-|
   1 3 4         1 3 4       1 3 4       1 3 4 2       1 3         1 3
      (3)           (3)         (3)
   Some people use the third finger while holding Power Chords,but in my
   opinion using also the small one makes finger evolutions easier.

 p - pull off
 h - hammer on
 \ - slide down
 ^ - interrupted note
 . - palm mute
 * - see comment near the tab

  Riff A1:               Riff A1(modified)
  F5                     F5
e|---------------------||---------------------------|
h|---------------------||---------------------------|
g|---------------------||---------------------------|
d|3--------------------||3--------------------------|
A|3------------4443334-||3------------444333--------|
E|1-11111111111------2-||1-11111111111------2222222-|
                     ^
 Riff A2:
 F5          Fis5     F5           Fis5
|------------------------------------------|
|------------------------------------------|
|------------666555----------------666444--|
|3-----------------4--3------------------4-|<=Let cease
|3-----------------4--3------------------4-|<=these notes
|1-1111111111---------1-1111111111---------|
                   ^
I'm not sure if A2 sounds ideal,so instead one you may play A1 twice,but let
cease notes at the end of Riff A1 the second time (like in Riff A2).

 Riff B:
 F5                             F5-2                 F5
|----------------------------------------------------------------------------|
|-------------------------------------------444------------------------------|
|-------------------------------------555666---666555------------------------|
|3-----444333-------333---------444333---------------3-----444333-------333--|
|3---------------------444---------------------------3-----------------------|
|111111------1111111------11111----------------------111111------1111111-----|

 continuation of Riff B:
    F5-2                  F5                            F5-2
|----------------------------------------------------------------------------|
|----------------------------------------------------------------------------|
|---333---3336665555533333------------------------------------555666555333555|
|444---333----------------3-----444333-------333--------444333---------------|
|-------------------------3---------------------444--------------------------|
|-------------------------111111------1111111------11111---------------------|

 continuation of Riff B:
 F5                       F5-2
|------------------------------------------------|
|------------------------------------------------|Remember to keep the left
|-------------------------333---3336665555533333-|hand in relevant position,
|3-----444333-------333------333-----------------|Riff B will be easier
|3---------------------444-----------------------|to play.
|111111------1111111-----------------------------|

 Riff C1:
          F5                    F5
|------------------------------------------|
|------------------------------------------|
|-------------------------------------3-11-|
|3---2----3-----4-33-333---2----3----------|
|-441-330-3-------------441-330-3----------|
|---------1-111-----------------1-111------|
\________/
    \/
 Filling C:
|------------|
|------------|
|------------|See the song structure in order to know when to play Filling C.
|3-----2-----|Filling C and beginning of Riff C1 have the same lenght.
|--4-1---3-0-|
|------------|
 . . . . . .

  Riff C2:
          F5                   F5-2
|---------------------------------------|
|---------------------------------------|
|------------------------------553-665--|
|3---2----3-----4-33-333---2------4---3-|
|-441-330-3-------------441-330---------|
|---------1-111-------------------------|

 Riff D:                                          Riff E:
F5*   F5 *  F5*   F5C5  Cis5                      F5
|----------------------------|                   |--------------------------|
|----------------------------|                   |--------------------------|
|-553----665--553---5--56--6-|*=Keep left hand in|--------------------------|
|3---4333---43---4335---6----|F5-2 chord position|3------11-----------------|
|3----333----3----333-3-4-4--|                   |3-----4--443444333--------|
|1----111----1----11---------|                   |1--111------------2222222-|

 Riff F1:
 F5  F5-2     F5  F5-2     F5  F5-2     G
|--------------------------------------------------------|
|--------------------------------------------4-----------|Use the small
|----333555-------666555-------333555---5--5---6-5-3h5p3-|finger while
|3---------4443---------3333---------4443----------------|hammering-on and
|3------------3------------1------------3-3--------------|pulling-off.
|1------------1------------1-----------------------------|

 Riff F2:
 F5  F5-2     F5  F5-2     F5  F5-2     G
|--------------------------------------------------------|
|--------------------------------------------44----------|Use the small
|----333555-------666555-------333555---5--5----6-5p3----|finger while
|3---------4443---------3333---------4443----------------|pulling-off.
|3------------3------------1------------3-3--------------|
|1------------1------------1-----------------------------|

 Riff F3:
 F5  F5-2     F5  F5-2     F5  F5-2     G
|--------------------------------------------------------|
|--------------------------------------------------------|Use the small
|----333555-------666555-------333555---5--5-6\5--3------|finger while
|3---------4443---------3333---------4443----------------|sliding down.
|3------------3------------1------------3-3--------------|
|1------------1------------1-----------------------------|

Riff F1,Riff F2 and Riff F3 have the same lenght.

Here's the omposition's structure:
Riff A1*2
Riff A2
Riff B
Riff C1*5 (The last time instead of beginning of Riff C1 play Filling C)
Riff C2+C1+C2
Riff D*4
Riff F1*4
Riff E*4
Riff A1(modified)*4
Riff (C1+C2)*3 (The first time instead of beginning of Riff C1 play Filling C)
Riff D*4
Riff F2+F3
Riff A1(modified)*6 (This part doesn't occur in original recording.There is
  only one guitarist in Behemoth,and at the end he is playing solo with 
  moaning tones using vibrato,however the bass guitar plays like in Riff A1
  and Riff A2.When you are playing this song without bass accompany,it's
  better to play Riff A1 instead of solo.)

Listen to the original recording in order to catch the relevant timing.It is
avaivable on the latest LP of Behemoth-"PANDEMONIC INCANTATIONS"from
Solistitium Rec.(Germany).I hope that playing this composition will be
a pleasure for you-at last Adas Darski (guit/voc in Behemoth) managed to
compose something really good.S T A Y  B R U T A L ! ! ! Piotr.
            
Submit corrections


        In Thy Pandemaeternum lessons Hard to play? Try these video lessons and learn fast In Thy Pandemaeternum lessons
        
↑ Back to top | Tablatures and chords for acoustic guitar and electric guitar, ukulele, drums are parodies/interpretations of the original songs. You may use it for private study, scholarship, research or language learning purposes only