» » »

Bedlight For Blue Eyes - Too Late For Us Tabs

Artists:  A B C D E F G H I J K L M N O P Q R S T U V W X Y Z # 

Too Late For Us Tabs

(ver. 1) Click to play this song!
Bedlight For Blue Eyes
 Rating:
4/5 (4 votes)


 Too Late For Us lessons Tabs too difficult? Try these video lessons and learn fast
 
                Hey, this is an amazing song. so, I decided to tab it. I hope this helps you
and don't forget to rate and comment! Thanks!

B = bend
~ =ring out
e|-------------------------9----12p9---------|
B|---12B--10--10~--10--12-------------12-----|
G|-------------------------------------------|
D|-------------------------------------------|
A|-------------------------------------------|
E|-------------------------------------------|
cont.
e|---------------------------------------------|
B|---12B--10--10~---10--------10---------------|
G|---------------------11-11~-------11--9------|
D|---------------------------------------------|
A|---------------------------------------------|
E|---------------------------------------------|
cont.
e|-------------------------9----12p9---------|
B|---12B--10--10~--10--12-------------12-----|
G|-------------------------------------------|
D|-------------------------------------------|
A|-------------------------------------------|
E|-------------------------------------------|
cont.
e|-------------9----14B---12---9h12p9---------------|
B|----10---12------------------------------12~------|
G|--------------------------------------------------|
D|--------------------------------------------------|
A|--------------------------------------------------|
E|--------------------------------------------------|

There is a harmony part on top of the riff above, it's hard for me
to hear it, but this is what I could do...
Harmony intro
e|-------------------------------|
B|-----------------9-12/9--------|
G|--11b-9-9~--9-11---------11~---|
D|-------------------------------|
A|-------------------------------|
E|-------------------------------|
cont.
e|--------------------------------|
B|--------------------------------|
G|---11b-9-9~-9--------9----------|
D|--------------11-11~---11--9----|
A|--------------------------------|
E|--------------------------------|
cont.
e|-------------------------------|
B|-----------------9-12/9--------|
G|--11b-9-9~--9-11---------11~---|
D|-------------------------------|
A|-------------------------------|
E|-------------------------------|
cont.
e|---------------------------------|
B|-------9--14b--12--9-12----------|
G|--9h10-------------------11~-----|
D|---------------------------------|
A|---------------------------------|
E|---------------------------------|

Rhythm intro
e|------------------------------------|
B|------------------------------------|
G|-------2----------------------------|
D|---2---2---4---2----------22---44---|
A|---2---0----------2---4---22---44---|
E|---0----------------------00---22---|
Cont.
e|----------------------------------|
B|----------------------------------|
G|-----2--------------------44--7---|
D|--2--2----4----2----------44--7---|
A|--2--0-------------2---4--22--5---|
E|--0-------------------------------|

(0:18)
e|---------------------------------------|
B|---------------------------------------|
G|-------2-------2-----------------------|
D|---2---2---2---2----4---2---4---2------|
A|---2---0---2---0----4---2---4---2------|
E|---0-------0--------2---0---2---0------|

e|---------------------------------------|
B|---------------------------------------|
G|---4---2--------------2----------------|
D|---4---2--------------2---4---2--4--2--|
A|---2---0--------------0---4---2--4--2--|
E|-----------1/2/3----------2---0--2--0--|

after this part play the others again
e|-----------------------|
B|-----------------------|
G|------7777-7-7/4-------|
D|------7777-7-5/4-------|
A|------5555-5-5/2-------|
E|-----------------------|
        .... 
play with the riff above
e|-----------------------|
B|-----------------------|
G|----2222-2-2-----------|
D|----2222-2-2-----------|
A|----0000-0-0-----------|
E|-----------------------|
      ....


instead of playing the last part you would play......
e|---------------------------|
B|---------------------------|
G|---------------------------|Start off with palm muting then progressively
D|---22222222----------------|start to strum
A|---22222222----------------|
E|---00000000----------------|

Chorus
e|------------------------------------|
B|------------------------------------|
G|-------2----------------------------|
D|---2---2---4---2----------22---44---|
A|---2---0----------2---4---22---44---|
E|---0----------------------00---22---|
Cont.
e|----------------------------------|
B|----------------------------------|
G|-----2--------------------44--7---|
D|--2--2----4----2----------44--7---|
A|--2--0-------------2---4--22--5---|
E|--0-------------------------------|

Only repeat the top one then play.......
e|---------------------------|
B|---------------------------|
G|---77777---6---------------|
D|---77777---6---2-----------|
A|---55555---4---2-----------|
E|---------------0-----------|

0:18)
e|---------------------------------------|
B|---------------------------------------|
G|-------2-------2-----------------------|
D|---2---2---2---2----4---2---4---2------|
A|---2---0---2---0----4---2---4---2------|
E|---0-------0--------2---0---2---0------|

e|----------------------------|
B|----------------------------|
G|---4---2--------2-----------|
D|---4---2---444--2---4---2---|
A|---2---0---444--0---4---2---|
E|-----------222------2---0---|

after this part play the others again
e|---------------------------|
B|---------------------------|
G|------77777---4------------|
D|------77777---4------------|
A|------55555---2------------|
E|---------------------------|

One guitar palm mutes these chords
e|--------------------------|
B|--------------------------|
G|--7777--66--2222----------|
D|--7777--66--2222--2222----|
A|--5555--44--0000--2222----|
E|------------------0000----|
    ....  ..  ....  ....

Play the chorus again then the next part (2:01) is......

e|-----------------------------------------------------------|
B|-----------------------------------------------------------|
G|--7777--66--2222----------7777---66---9999-----------------|
D|--7777--66--2222--2222----7777---66---9999---2222----------|
A|--5555--44--0000--2222----5555---44---7777---2222----------|
E|------------------0000-----------------------0000----------|
    ....  ..  ....  ....    ....   ..   ....   ....

slowly begin strumming ^ and then after repeat the chorus a bunch of times and then the 
and that is it!
            
Submit corrections



        Too Late For Us lessons Hard to play? Try these video lessons and learn fast Too Late For Us lessons
        
↑ Back to top | Tablatures and chords for acoustic guitar and electric guitar, ukulele, drums are parodies/interpretations of the original songs. You may use it for private study, scholarship, research or language learning purposes only