Home » B » Beck Jeff »

Beck Jeff - You Know What I Mean Tabs

Artists:  A B C D E F G H I J K L M N O P Q R S T U V W X Y Z # 

You Know What I Mean Tabs

(ver. 2) Click to play this song!
Beck Jeff
Lines: 44


Here is the rhythm guitar part for Jeff Beck's "You Know What I Mean"
off of his Blow By Blow record:

    
e---7---5--------------7---5---------------------
B---5---5----6-6-5-----5---5--4/5-4/5------------
G---5---5----5-5-5-----5---5--4/5-4/5------------
D---5---5----4-4-4-----5---5--3/4-3/4------------
A------------------------------------------------
E------------------------------------------------

Make it extra funky.  

The melody line (doubled by a synthesizer) goes something like:
(w) = whamy bar

e----------10------------------------------------
B-10-12-13----10--14w(13)w(14)w(13)w(14)---------
G-----------------14w(13)w(14)w(13)w(14)---------
D------------------------------------------------
A------------------------------------------------
E------------------------------------------------


e----------10-12------------------14-15-17~------
B-10-12-13-------10-12h13p12p10------------------
G------------------------------------------------
D------------------------------------------------
A------------------------------------------------
E------------------------------------------------

e----------10------------------------------------
B-10-12-13----10--14w(13)w(14)w(13)w(14)---------
G-----------------14w(13)w(14)w(13)w(14)---------
D------------------------------------------------
A------------------------------------------------
E------------------------------------------------


For the solos you are on your own.

-Josh Ronsen
            
Submit corrections

↑ Back to top | Tablatures and chords for acoustic guitar and electric guitar, ukulele, drums are parodies/interpretations of the original songs. You may use it for private study, scholarship, research or language learning purposes only