» » »

Beck - Girl Dreams Tabs

Artists:  A B C D E F G H I J K L M N O P Q R S T U V W X Y Z # 

Girl Dreams Tabs

(ver. 1) Click to play this song!
Beck
 Rating:
4.3/5 (18 votes)

 Girl Dreams lessons Tabs too difficult? Try these video lessons and learn fast
 
                [Chorus]

e|-------------------------------------------------------------|
B|-12-12-12-12-9-9-9-9---------------------------------9-12----|
G|---------------------11----------9-9-9-9-11-11-11-11------9--|
D|------------------------9-11--11-----------------------------|
A|-------------------------------------------------------------|
E|-------------------------------------------------------------|

4:01 and 4:34
e|-9-12-9------------------------------------------------------|
B|--------12-9-------------------------------------------------|
G|-------------11-11/13\11-------------------------------------|
D|-------------------------------------------------------------|
A|-------------------------------------------------------------|
E|-------------------------------------------------------------|            
Submit corrections


        Girl Dreams lessons Hard to play? Try these video lessons and learn fast Girl Dreams lessons
        
↑ Back to top | Tablatures and chords for acoustic guitar and electric guitar, ukulele, drums are parodies/interpretations of the original songs. You may use it for private study, scholarship, research or language learning purposes only