» » »

Beck - Debra Tabs

Artists:  A B C D E F G H I J K L M N O P Q R S T U V W X Y Z # 

Debra Tabs

(ver. 1) Click to play this song!
Beck
 Rating:
4/5 (4 votes)

 Debra lessons Tabs too difficult? Try these video lessons and learn fast
 
                Tuning:normal
Intro:
e|--------------------|---------------------------------------
B|--------------------|---------------------------------------
G|---------------9-11-|9-11-9-11-9-11-9-11-9-11---------------
D|----------9-11------|---------------------------------------
A|---9-11-------------|---------------------------------------
E|--------------------|---------------------------------------
                      |
e|--------------------|---------------------------------------
B|--------------------|---------------------------------------
G|--------------------|---------------------------------------
D|---------------9-11-|9-11-9-11-9-11-9-11-9-11---------------
A|---------9-11-------|---------------------------------------
E|---9-11-------------|---------------------------------------
                       let it ring out and play with wah wah or delay effect

other part
e|---------4-3-2-0-----4-3-2-0-----4-3-2-0-------------------
B|---0-2-4---------2-4---------2-4---------------------------
G|----------------------------------------------------------- play it a few times
D|-----------------------------------------------------------
A|-----------------------------------------------------------
E|-----------------------------------------------------------
            
Submit corrections


        Debra lessons Hard to play? Try these video lessons and learn fast Debra lessons
        
↑ Back to top | Tablatures and chords for acoustic guitar and electric guitar, ukulele, drums are parodies/interpretations of the original songs. You may use it for private study, scholarship, research or language learning purposes only