» » »

Bebo Norman - Hammer Holds Tabs

Artists:  A B C D E F G H I J K L M N O P Q R S T U V W X Y Z # 

Hammer Holds Tabs

(ver. 2) Click to play this song!
Bebo Norman
 Rating:
4/5 (4 votes)

 Hammer Holds lessons Tabs too difficult? Try these video lessons and learn fast
 
                
                                  HAMMER HOLDS
                           As recorded by Bebo Norman
                     (From the 1999 Album TEN THOUSAND DAYS)

Words and Music by Bebo Norman
Arranged by Volcom4137

Gtr I (E A D G B E) - 'Capo 4'

 Intro
  Q=90
 4/4
  Gtr I
  E E E E E E E E   E E E E E E E E   E E E E E E E E   E E E E E E E E
|-------0---------|-------0---------|-----------------|-----------------|
|-----3-------3---|-----3-------3---|-------3---------|-----2---3---2---|
|---2-----------0-|---0-----------0-|-----0---------0-|-----0---0---0---|
|-0---------0-----|-----------2-----|---0---------0---|---2---2---2---2-|
|---------4-------|-2-------0-------|---------0h2-----|-0---------------|
|-----------------|-----------------|-3---------------|-----------------|


  E E E E E E E E   E E E E E E E E
|-------0---------|-------0---------|
|-----3-------3---|-----3-------3---|
|---2-----------0-|---0-----------0-|
|-0---------0-----|-----------2-----|
|---------4-------|-2-------0-------|
|-----------------|-----------------|


                                     2/4
  E E E E E E E E   E E E E E E E E   E E E E
|-----------------|-----------------|-----------|
|-------3-----3---|-------3-----2---|-3---2-----|
|-----0-------2p0-|-----0-------0---|-0---0-----|
|---0-------0-----|---0-------2---2-|---2---2---|
|-----------------|---------0-------|-----------|
|-3-------2-------|-3---------------|-----------|


 Verse
 4/4
  E E E E E E E E   E E E E E E E E   E E E E E E E E   E E E E E E E E
|-------0---------|-------0---------|-----------------|-----------------|
|-----3-------3---|-----3-------3---|-------3---------|-----2---3---2---|
|---2-----------0-|---0-----------0-|-----0---------0-|-----0---0---0---|
|-0---------0-----|-----------2-----|---0---------0---|---2---2---2---2-|
|---------4-------|-2-------0-------|---------0h2-----|-0---------------|
|-----------------|-----------------|-3---------------|-----------------|


  E E E E E E E E   E E E E E E E E   E E E E E E E E   E E E E S S E E E
|-------0---------|-------0---------|-----------------|---------0-2-----2-|
|-----3-------3---|-----3-------3---|-------3---------|-----3-------3-----|
|---2-----------0-|---0-----------0-|-----0---------0-|---2---2-------2---|
|-0---------0-----|-----------2-----|---0---------0---|-0-----------------|
|---------4-------|-2-------0-------|---------0h2-----|-------------------|
|-----------------|-----------------|-3---------------|-------------------|


  E E E E E E E E   E E E E E E E E   E E E E E E E E   E E E E E E E E
|-------0---------|-------0---------|-----------------|------------------|
|-----3-------3---|-----3-------3---|-------3---------|-----2---3---2----|
|---2-----------0-|---0-----------0-|-----0---------0-|-----0---0---0----|
|-0---------0-----|-----------2-----|---0---------0---|---2---2---2---2--|
|---------4-------|-2-------0-------|---------0h2-----|-0----------------|
|-----------------|-----------------|-3---------------|------------------|


  E E E E E E E E   E E E E E E E E   E E E E E E E E   E E E E S S E E E
|-------0---------|-------0---------|-----------------|---------0-2-----2-|
|-----3-------3---|-----3-------3---|-------3---------|-----3-------3-----|
|---2-----------0-|---0-----------0-|-----0---------0-|---2---2-------2---|
|-0---------0-----|-----------2---2-|---0---------0---|-0-----------------|
|---------4-------|-2-------0-------|---------0h2-----|-------------------|
|-----------------|-----------------|-3---------------|-------------------|


 Chorus
  E E E E E E E E   E E E E E E E E   E E E E E E E E   E E E E E E E E
|-------0---------|-------0---------|-----------------|-----3---2-----2--|
|-----3-------3---|-----3-------3---|-------3-----2h3-|-----3---3--------|
|---2-----------0-|---0-----------0-|-----0-------0---|---2---2---2------|
|-0---------0-----|-----------2-----|---0-------2-----|-0-----------0----|
|---------4-------|-2-------0-------|---------0-------|------------------|
|-----------------|-----------------|-3---------------|------------------|


  E E E E E E E E   E E E E E E E E   E E E E E E E E   E E E E E E E E
|-------0---------|-------0---------|-----------------|------------------|
|-----3-------3---|-----3-------3---|-------3-----3---|-------3-----2h3--|
|---2-----------0-|---0-----------0-|-----0-------2p0-|-----0-------0----|
|-0---------0-----|-----------2---2-|---0-------0-----|---0-------2------|
|---------4-------|-2-------0-------|-----------------|---------0--------|
|-----------------|-----------------|-3-------2-------|-3----------------|


 4/4
  E E E E E E E E   E E E E E E E E   E E E E E E E E   E E E E S S E E E
|-------0---------|-------0---------|-----------------|---------0-2-----2--|
|-----3-------3---|-----3-------3---|-------3-----2h3-|-----3-------3------|
|---2-----------0-|---0-----------0-|-----0-------0---|---2---2-------2----|
|-0---------0-----|-----------2-----|---0-------2-----|-0------------------|
|---------4-------|-2-------0-------|---------0-------|--------------------|
|-----------------|-----------------|-3---------------|--------------------|


  E E E E E E E E   E E E E E E E E   E E E E E E E E   E E E E S S E E E
|-------0---------|-------0---------|-----------------|---------0-2-----2-|
|-----3-------3---|-----3-------3---|-------3---------|-----3-------3-----|
|---2-----------0-|---0-----------0-|-----0---------0-|---2---2-------2---|
|-0---------0-----|-----------2---2-|---0---------0---|-0-----------------|
|---------4-------|-2-------0-------|---------0h2-----|-------------------|
|-----------------|-----------------|-3---------------|-------------------|


 Verse
  E E E E E E E E   E E E E E E E E   E E E E E E E E   E E E E E E E E
|-------0---------|-------0---------|-----------------|------------------|
|-----3-------3---|-----3-------3---|-------3---------|-----2---3---2----|
|---2-----------0-|---0-----------0-|-----0---------0-|-----0---0---0----|
|-0---------0-----|-----------2-----|---0---------0---|---2---2---2---2--|
|---------4-------|-2-------0-------|---------0h2-----|-0----------------|
|-----------------|-----------------|-3---------------|------------------|


  E E E E E E E E   E E E E E E E E   E E E E E E E E   E E E E S S E E E
|-------0---------|-------0---------|-----------------|---------0-2-----2-|
|-----3-------3---|-----3-------3---|-------3---------|-----3-------3-----|
|---2-----------0-|---0-----------0-|-----0---------0-|---2---2-------2---|
|-0---------0-----|-----------2---2-|---0---------0---|-0-----------------|
|---------4-------|-2-------0-------|---------0h2-----|-------------------|
|-----------------|-----------------|-3---------------|-------------------|


  E E E E E E E E   E E E E E E E E   E E E E E E E E   E E E E E E E E
|-------0---------|-------0---------|-----------------|------------------|
|-----3-------3---|-----3-------3---|-------3---------|-----2---3---2----|
|---2-----------0-|---0-----------0-|-----0---------0-|-----0---0---0----|
|-0---------0-----|-----------2-----|---0---------0---|---2---2---2---2--|
|---------4-------|-2-------0-------|---------0h2-----|-0----------------|
|-----------------|-----------------|-3---------------|------------------|


  E E E E E E E E   E E E E E E E E   E E E E E E E E   E E E E S S E E E
|-------0---------|-------0---------|-----------------|---------0-2-----2-|
|-----3-------3---|-----3-------3---|-----3-----------|-----3-------3-----|
|---2-----------0-|---0-----------0-|-------0-------0-|---2---2-------2---|
|-0---------0-----|-----------2-----|---0---------0---|-0-----------------|
|---------4-------|-2-------0-------|---------0h2-----|-------------------|
|-----------------|-----------------|-3---------------|-------------------|


 Chorus
  E E E E E E E E   E E E E E E E E   E E E E E E E E   E E E E E E E E
|-------0---------|-------0---------|-----------------|-----3---2-----2--|
|-----3-------3---|-----3-------3---|-----3-------2h3-|-----3---3--------|
|---2-----------0-|---0-----------0-|-------0-----0---|---2---2---2------|
|-0---------0-----|-----------2-----|---0-------2-----|-0-----------0----|
|---------4-------|-2-------0-------|---------0-------|------------------|
|-----------------|-----------------|-3---------------|------------------|


  E E E E E E E E   E E E E E E E E   E E E E E E E E   E E E E E E E E
|-------0---------|-------0---------|-----------------|------------------|
|-----3-------3---|-----3-------3---|-----3-------3---|-------3-----2h3--|
|---2-----------0-|---0-----------0-|-------0-----2p0-|-----0-------0----|
|-0---------0-----|-----------2-----|---0-------0-----|---0-------2------|
|---------4-------|-2-------0-------|-----------------|---------0--------|
|-----------------|-----------------|-3-------2-------|-3----------------|


  E E E E E E E E   E E E E E E E E   E E E E E E E E   E E E E S S E E E
|-------0---------|-------0---------|-----------------|---------0-2-----2-|
|-----3-------3---|-----3-------3---|-------3-----2h3-|-----3-------3-----|
|---2-----------0-|---0-----------0-|-----0-------0---|---2---2-------2---|
|-0---------0-----|-----------2-----|---0-------2-----|-0-----------------|
|---------4-------|-2-------0-------|---------0-------|-------------------|
|-----------------|-----------------|-3---------------|-------------------|


  E E E E E E E E   E E E E E E E E   E E E E E E E E   E E E E S S E E E
|-------0---------|-------0---------|-----------------|---------0-2-----2-|
|-----3-------3---|-----3-------3---|-------3---------|-----3-------3-----|
|---2-----------0-|---0-----------0-|-----0---------0-|---2---2-------2---|
|-0---------0-----|-----------2-----|---0---------0---|-0-----------------|
|---------4-------|-2-------0-------|---------0h2-----|-------------------|
|-----------------|-----------------|-3---------------|-------------------|


 Interlude
  E E E E E E E E   E E E E E E E E   E E E E E E E E
|-------0---------|-------0---------|-----------------|
|-----3-------3---|-----3-------3---|-------3-----3---|
|---2-----------0-|---0-----------0-|-----0-------2p0-|
|-0---------0-----|-----------2-----|---0-------0-----|
|---------4-------|-2-------0-------|-----------------|
|-----------------|-----------------|-3-------2-------|


                                   2/4
  E E E E E E E S S   E S S H.      H
|-------------------|-------------|-----|
|-------3-----2-----|-3-----5-----|-----|
|-----0-------0-----|-0-----0-----|-----|
|---0-------2---2p0-|---2p0-------|-----|
|---------0---------|-------------|-----|
|-3-----------------|-------------|-----|


 Verse
 4/4
  E E E E E E E E   E E E E E E E E   E E E E E E E E   E E E E E E E E
|-------0---------|-------0---------|-----------------|-----------------|
|-----3-------3---|-----3-------3---|-------3---------|-----2---3---2---|
|---2-----------0-|---0-----------0-|-----0---------0-|-----0---0---0---|
|-0---------0-----|-----------2-----|---0---------0---|---2---2---2---2-|
|---------4-------|-2-------0-------|---------0h2-----|-0---------------|
|-----------------|-----------------|-3---------------|-----------------|


  E E E E E E E E   E E E E E E E E   E E E E E E E E   E E E E S S E E E
|-------0---------|-------0---------|-----------------|---------0-2-----2-|
|-----3-------3---|-----3-------3---|-------3---------|-----3-------3-----|
|---2-----------0-|---0-----------0-|-----0---------0-|---2---2-------2---|
|-0---------0-----|-----------2-----|---0---------0---|-0-----------------|
|---------4-------|-2-------0-------|---------0h2-----|-------------------|
|-----------------|-----------------|-3---------------|-------------------|


  E E E E E E E E   E E E E E E E E   E E E E E E E E   E E E E E E E E
|-------0---------|-------0---------|-----------------|------------------|
|-----3-------3---|-----3-------3---|-------3---------|-----2---3---2----|
|---2-----------0-|---0-----------0-|-----0---------0-|-----0---0---0----|
|-0---------0-----|-----------2-----|---0---------0---|---2---2---2---2--|
|---------4-------|-2-------0-------|---------0h2-----|-0----------------|
|-----------------|-----------------|-3---------------|------------------|


  E E E E E E E E   E E E E E E E E   E E E E E E E E   E E E E S S E E E
|-------0---------|-------0---------|-----------------|---------0-2-----2-|
|-----3-------3---|-----3-------3---|-------3---------|-----3-------3-----|
|---2-----------0-|---0-----------0-|-----0---------0-|---2---2-------2---|
|-0---------0-----|-----------2-----|---0---------0---|-0-----------------|
|---------4-------|-2-------0-------|---------0h2-----|-------------------|
|-----------------|-----------------|-3---------------|-------------------|


 Chorus
  E E E E E E E E   E E E E E E E E   E E E E E E E E   E E E E E E E E
|-------0---------|-------0---------|-----------------|-----3---0-----2--|
|-----3-------3---|-----3-------3---|-------3-----2h3-|-----3---3--------|
|---2-----------0-|---0-----------0-|-----0-------0---|---2---2---2------|
|-0---------0-----|-----------2-----|---0-------2-----|-0-----------0----|
|---------4-------|-2-------0-------|---------0-------|------------------|
|-----------------|-----------------|-3---------------|------------------|


  E E E E E E E E   E E E E E E E E   E E E E E E E E   E E E E E E E E
|-------0---------|-------0---------|-----------------|------------------|
|-----3-------3---|-----3-------3---|-----3-------3---|-------3-----2h3--|
|---2-----------0-|---0-----------0-|-------0-----2p0-|-----0-------0----|
|-0---------0-----|-----------2-----|---0-------0-----|---0-------2------|
|---------4-------|-2-------0-------|-----------------|---------0--------|
|-----------------|-----------------|-3-------2-------|-3----------------|


  E E E E E E E E   E E E E E E E E   E E E E E E E E   E E E E E E E E
|-------0---------|-------0---------|-----------------|-----0-2-3p2-0-2--|
|-----3-------3---|-----3-------3---|-------3-----2h3-|---------3-3------|
|---2-----------0-|---0-----------0-|-----0-------0---|---2--------------|
|-0---------0-----|-----------2-----|---0-------2-----|-0----------------|
|---------4-------|-2-------0-------|---------0-------|------------------|
|-----------------|-----------------|-3---------------|------------------|


  E E E E E E E E   E E E E E E E E   E E E E E E E E   E E E E S S E E E
|-------0---------|-------0---------|-----------------|---------0-2-----2-|
|-----3-------3---|-----3-------3---|-------3---------|-----3-------3-----|
|---2-----------0-|---0-----------0-|-----0---------0-|---2---2-------2---|
|-0---------0-----|-----------2-----|---0---------0---|-0-----------------|
|---------4-------|-2-------0-------|---------0h2-----|-------------------|
|-----------------|-----------------|-3---------------|-------------------|


 Outro
  E E E E E E E E   E E E E E E E E   E E E E E E E E   E E E E E E E E
|-------0---------|-------0---------|-----------------|---------0-2------|
|-----3-------3---|-----3-------3---|-------3---------|-----3-------3----|
|---2-----------0-|---0-----------0-|-----0---------0-|---2---2-------2--|
|-0---------0-----|-----------2-----|---0---------0---|-0----------------|
|---------4-------|-2-------0-------|---------0h2-----|------------------|
|-----------------|-----------------|-3---------------|------------------|


  E E E E E E E E   E E E E E E E E   E E E E E E E E   E E  H   Q
|-------0---------|-------0---------|-----------------|-----^0h==2---*|
|-----3-------3---|-----3-------3---|-----------------|---3-^3--(3)--*|
|---2-----------0-|---0-----------0-|-----------0-----|-2---^2--(2)--*|
|-0---------0-----|-----------2-----|---0---------0-0-|-----^0--(0)--*|
|---------4-------|-2-------0-------|-----0-2-0-------|--------------*|
|-----------------|-----------------|-3---------------|--------------*|


Duration Legend
---------------
W - whole; H - half; Q - quarter; E - 8th; S - 16th; T - 32nd; X - 64th; a - acciaccatura
+ - note tied to previous; . - note dotted; .. - note double dotted
Uncapitalized letters represent notes that are staccato (1/2 duration)
Irregular groupings are notated above the duration line
Duration letters will always appear directly above the note/fret number it represents the
duration for.  Duration letters with no fret number below them represent rests.  Multi-
bar rests are notated in the form Wxn, where n is the number of bars to rest for.  Low
melody durations appear below the staff

Tablature Legend
----------------
 h   - hammer-on
 p   - pull-off
 b   - bend
 pb  - pre-bend
 r   - bend release (if no number after the r, then release immediately)
 /\  - slide into or out of (from/to "nowhere")
 s   - legato slide
 S   - shift slide
  - natural harmonic
[n]  - artificial harmonic
n(n) - tapped harmonic
 ~   - vibrato
 tr  - trill
 T   - tap
 TP  - trem. picking
 PM  - palm muting
\n/  - tremolo bar dip; n = amount to dip
 \n  - tremolo bar down
 n/  - tremolo bar up
/n\  - tremolo bar inverted dip
 =   - hold bend; also acts as connecting device for hammers/pulls
 <>  - volume swell (louder/softer)
 x   - on rhythm slash represents muted slash
 o   - on rhythm slash represents single note slash

Misc Legend
-----------
 |  - bar
||  - double bar
||o - repeat start
o|| - repeat end
*|  - double bar (ending)
 :  - bar (freetime)
 $  - Segno
 &  - Coda
Tempo markers -  = BPM(8/16=s8/s16), where s8 = swing 8ths, s16 = swing 16ths
            
Submit corrections


        Hammer Holds lessons Hard to play? Try these video lessons and learn fast Hammer Holds lessons
        
↑ Back to top | Tablatures and chords for acoustic guitar and electric guitar, ukulele, drums are parodies/interpretations of the original songs. You may use it for private study, scholarship, research or language learning purposes only