» » »

Bebe Rexha - Im A Mess Acoustic Chords

Artists:  A B C D E F G H I J K L M N O P Q R S T U V W X Y Z # 

Im A Mess Acoustic Chords

(ver. 1) Click to play this song!
Bebe Rexha
 Rating:
4.4/5 (8 votes)

 Im A Mess Acoustic lessons Tabs too difficult? Try these video lessons and learn fast
 
                [Intro]
e|------------------0--------------|
B|-----1--------0---0------------0-|
G|------------------0---------0h2--|
D|------------------2--------------| x2
A|-0--0-0--------------------------|
E|----------3--3---------1-0-0-----|

[Verse 1] 
e|------------------0--------------|
B|-----1--------0---0------------0-|
G|------------------0---------0h2--|
D|------------------2--------------| x4
A|-0--0-0--------------------------|
E|----------3--3---------1-0-0-----|

Everything's been so messed up here lately.
Pretty sure he don't wanna be my baby.
Oh, he don't love me, he don't love me.
He don't love me, he don't love me but that's okay.
'Cause I love me, yeah, I love me.Yeah, I love me.
Yeah, I love myself anyway. Hey.

[Chorus 1]
C                              Em
Everything's gonna be alright. Everything's gonna be OK.
Dm                                G
It's gonna be a good, good, life. That's what my therapist say.
C                              Em
Everything's gonna be alright. Everything's gonna be just fine.
Dm                         G
It's gonna be a good, good life.

[Verse 2]
      Am          G            Em           F
I'm a mess, I'm a loser, I'm a hater, I'm a user.
      Am            G              Em       F
I'm a mess for your love, it ain't new.
     Am             G                  Em           F
I'm obsessed, I'm embarrassed. I don't trust no one around us.
      Am            G              Em      F
I'm a mess for your love, it ain't new.

Am              G            Em          F
Oo  Oo        ah ah       ah ah       oo  oo
Am              G            Em          F
ah ah         ah ah       ah ah       oo  oo

   Am       G       Em
e|-0--------1-------0--------------|
B|-1--------0-------0------------0-|
G|-2--------0-------0---------0h2--|
D|-2--------0-------2--------------|
A|-0--------2-------2--------------|
E|-x--------3-------0----1-0-0-----|

Nobody shows up unless I'm paying
e|------------------0--------------|
B|-----1--------0---0------------0-|
G|------------------0---------0h2--|
D|------------------2--------------| x3
A|-0--0-0--------------------------|
E|----------3--3---------1-0-0-----|

Have a drink on me cheers to the failing
Oh, he don't love me, he don't love me,
He don't love me, he don't love me, but that's okay.
'Cause I love me, yeah, I love me.Yeah, I love me.
Yeah, I love myself anyway. Hey.

[Chorus 2]
C                              Em
Everything's gonna be alright. Everything's gonna be OK.
Dm                                G
It's gonna be a good, good, life. That's what my therapist say.
C                              Em
Everything's gonna be alright. Everything's gonna be just fine.
Dm                         G
It's gonna be a good, good life.

[Verse 2]
      Am          G            Em           F
I'm a mess, I'm a loser, I'm a hater, I'm a user.
      Am            G              Em       F
I'm a mess for your love, it ain't new.
     Am             G                  Em           F
I'm obsessed, I'm embarrassed. I don't trust no one around us.
      Am            G              Em      F
I'm a mess for your love, it ain't new.

Am              G            Em          F
Oo  Oo        ah ah       ah ah       oo  oo
Am              G            Em          F
ah ah            ah ah       ah ah       oo  oo
Am              G            Em          F
ah ah          ah ah       ah ah       oo  oo
Am              G            Em          F
ah ah           ah ah       ah ah      oo

            
Submit corrections


        Im A Mess Acoustic lessons Hard to play? Try these video lessons and learn fast Im A Mess Acoustic lessons
        
↑ Back to top | Tablatures and chords for acoustic guitar and electric guitar, ukulele, drums are parodies/interpretations of the original songs. You may use it for private study, scholarship, research or language learning purposes only