» » »

Beatsteaks - A Real Paradise Tabs

Artists:  A B C D E F G H I J K L M N O P Q R S T U V W X Y Z # 

A Real Paradise Tabs

(ver. 1) Click to play this song!
Beatsteaks
 Rating:
2.5/5 (22 votes)

 A Real Paradise  lessons Tabs too difficult? Try these video lessons and learn fast
 
                Tuning: eBGDAE

Intro

         A                A   H   C   D   A   H   C   D   A
E------------------------------------------------------------|
H------------------------------------------------------------|
G-2--2-2--2--2-2--2--2-2--2--4-4--5--7-7-----4-4--5--7-7-----|
D-2--2-2--2--2-2--2--2-2--2--4-4--5--7-7--7--4-4--5--7-7--7--|
A-0--0-0--0--0-0--0--0-0--0--2-2--3--5-5--7--2-2--3--5-5--7--|
E-----------------------------------------5---------------5--|


Verse/Chorus (Guitar 1) 

  A   H   C   D   A   H   C   D   A
E------------------------------------|
H----4-4--5--7-7-----4-4--5--7-7-----|
G-6--4-4--5--7-7--6--4-4--5--7-7--6--|
D-7--4-4--5--7-7--7--4-4--5--7-7--7--|
A-7--2-2--3--5-5--7--2-2--3--5-5--7--|
E-5---------------5---------------5--|


(Guitar 2) 
                 or      
E------------------------------------|
H------------------------5-4-5-6-----|
G--9-8-9-10--------------------------|
D------------------------------------|
A------------------------------------|
E------------------------------------|

solo*

Bridge

E----------------------------|
H--7-7------------7-7--------|
G--7-7-6----------7-7-6------|
D--7-7-7----------7-7-7------|
A--5-5-7----------5-5-7------|
E------5-------------5-------|


            
Submit corrections


        A Real Paradise  lessons Hard to play? Try these video lessons and learn fast A Real Paradise  lessons
        
↑ Back to top | Tablatures and chords for acoustic guitar and electric guitar, ukulele, drums are parodies/interpretations of the original songs. You may use it for private study, scholarship, research or language learning purposes only