» » »

Beatles - Youre Going To Lose That Girl Tabs

Artists:  A B C D E F G H I J K L M N O P Q R S T U V W X Y Z # 

Youre Going To Lose That Girl Tabs

(ver. 1) Click to play this song!
Beatles
 Rating:
4/5 (4 votes)

 Youre Going To Lose That Girl  lessons Tabs too difficult? Try these video lessons and learn fast
 
                Gtr I (E A D G B E) - 'John Lennon - Electric Guitar'
Gtr II (E A D G B E) - 'George Harrison - Electric Guitar'


   Chorus
    Q=142
    E                 C#m               F#m
   4/4
    Gtr I
    Q  Q  E E +E  E   Q  E E +E  E Q    Q  E E +E  E Q
||--0--0--0-0-(0)-0-|-4--4-4-(4)-4-4--|-2--2-2-(2)-2-2--|
||o-0--0--0-0-(0)-0-|-5--5-5-(5)-5-5--|-2--2-2-(2)-2-2--|
||--1--1--1-1-(1)-1-|-6--6-6-(6)-6-6--|-2--2-2-(2)-2-2--|
||--2--2--2-2-(2)-2-|-6--6-6-(6)-6-6--|-4--4-4-(4)-4-4--|
||o-2--2--2-2-(2)-2-|-4--4-4-(4)-4-4--|-4--4-4-(4)-4-4--|
||--0--0--0-0-(0)-0-|-----------------|-2--2-2-(2)-2-2--|


                     1st - 3rd Verses
                   $
  B7             E                        G#m             F#m
  Q  E E +E  E E E    +Q   Q  E E +E  E   Q  E E +H       Q  Q  E E +E  E
|-2--2-2-(2)-2-2-0-||-(0)--0--0-0-(0)-0-|-4--4-4-(4)----|-2--2--2-2-(2)-2--|
|-0--0-0-(0)-0-0-0-||-(0)--0--0-0-(0)-0-|-4--4-4-(4)----|-2--2--2-2-(2)-2--|
|-2--2-2-(2)-2-2-1-||-(1)--1--1-1-(1)-1-|-4--4-4-(4)----|-2--2--2-2-(2)-2--|
|-1--1-1-(1)-1-1-2-||-(2)--2--2-2-(2)-2-|-6--6-6-(6)----|-4--4--4-4-(4)-4--|
|-2--2-2-(2)-2-2-2-||-(2)--2--2-2-(2)-2-|-6--6-6-(6)----|-4--4--4-4-(4)-4--|
|----------------0-||-(0)--0--0-0-(0)-0-|-4--4-4-(4)----|-2--2--2-2-(2)-2--|


  B7             E                        G#m                F#m
  Q  E E +E  E E E   +Q   E E +E  E E E   Q  E E +E  E E E   Q  E E +E  E E E
|-2--2-2-(2)-2-2-0-|-(0)--0-0-(0)-0-0-0-|-4--4-4-(4)-4-4-4-|-2--2-2-(2)-2-2-2--|
|-0--0-0-(0)-0-0-0-|-(0)--0-0-(0)-0-0-0-|-4--4-4-(4)-4-4-4-|-2--2-2-(2)-2-2-2--|
|-2--2-2-(2)-2-2-1-|-(1)--1-1-(1)-1-1-1-|-4--4-4-(4)-4-4-4-|-2--2-2-(2)-2-2-2--|
|-1--1-1-(1)-1-1-2-|-(2)--2-2-(2)-2-2-2-|-6--6-6-(6)-6-6-6-|-4--4-4-(4)-4-4-4--|
|-2--2-2-(2)-2-2-2-|-(2)--2-2-(2)-2-2-2-|-6--6-6-(6)-6-6-6-|-4--4-4-(4)-4-4-4--|
|----------------0-|-(0)--0-0-(0)-0-0-0-|-4--4-4-(4)-4-4-4-|-2--2-2-(2)-2-2-2--|


                          Chorus
  B7                       E
  Q  E E +E  E E E         E E Q  E E +E  E
|-2--2-2-(2)-2-2-2--||-||--0-0-0--0-0-(0)-0-|
|-0--0-0-(0)-0-0-0-o||-||o-0-0-0--0-0-(0)-0-|
|-2--2-2-(2)-2-2-2--||-||--1-1-1--1-1-(1)-1-|
|-1--1-1-(1)-1-1-1--||-||--2-2-2--2-2-(2)-2-|
|-2--2-2-(2)-2-2-2-o||-||o-2-2-2--2-2-(2)-2-|
|-------------------||-||--0-0-0--0-0-(0)-0-|


  C#m                F#m
  E E E E +E  E Q    Q.   E +E  E Q
|-4-4-4-4-(4)-4-4--|-2----2-(2)-2-2--|
|-5-5-5-5-(5)-5-5--|-2----2-(2)-2-2--|
|-6-6-6-6-(6)-6-6--|-2----2-(2)-2-2--|
|-6-6-6-6-(6)-6-6--|-4----4-(4)-4-4--|
|-4-4-4-4-(4)-4-4--|-4----4-(4)-4-4--|
|------------------|-2----2-(2)-2-2--|


                                                         Bridge
                               To Coda
  B7                F#m                  D                G
  Q  E E +E  E Q    E E E E +E  E E E    Q  Q  E E E E    Q  Q  +E  E E E
|-2--2-2-(2)-2-2--|-2-2-2-2-(2)-2-2-2--|-2--2--2-2-2-2-||-3--3--(3)-3-3-3--|
|-0--0-0-(0)-0-0--|-2-2-2-2-(2)-2-2-2--|-3--3--3-3-3-3-||-0--0--(0)-0-0-0--|
|-2--2-2-(2)-2-2--|-2-2-2-2-(2)-2-2-2--|-2--2--2-2-2-2-||-0--0--(0)-0-0-0--|
|-1--1-1-(1)-1-1--|-4-4-4-4-(4)-4-4-4--|-0--0--0-0-0-0-||-0--0--(0)-0-0-0--|
|-2--2-2-(2)-2-2--|-4-4-4-4-(4)-4-4-4--|---------------||-2--2--(2)-2-2-2--|
|-----------------|-2-2-2-2-(2)-2-2-2--|---------------||-3--3--(3)-3-3-3--|


  C               G
  Q  Q  E E E E   Q  H    Q    +Q.   E +E  E +E  E   +Q   Q  Q  E E
|-3--3--3-3-3-3-|-3--3----3--|-(3)---3-(3)-3-(3)-3-|-(3)--3--3--3-3-|
|-3--3--3-3-3-3-|-0--0----0--|-(0)---0-(0)-0-(0)-0-|-(0)--0--0--0-0-|
|-0--0--0-0-0-0-|-0--0----0--|-(0)---0-(0)-0-(0)-0-|-(0)--0--0--0-0-|
|-2--2--2-2-2-2-|-0--0----0--|-(0)---0-(0)-0-(0)-0-|-(0)--0--0--0-0-|
|-3--3--3-3-3-3-|-2--2----2--|-(2)---2-(2)-2-(2)-2-|-(2)--2--2--2-2-|
|---------------|-3--3----3--|-(3)---3-(3)-3-(3)-3-|-(3)--3--3--3-3-|


                    1.
  C                  F
  E E E E E E +Q     Q  Q  +E  E +E  E
|-3-3-3-3-3-3-(3)--|-1--1--(1)-1-(1)-1-||
|-3-3-3-3-3-3-(3)--|-1--1--(1)-1-(1)-1-||
|-0-0-0-0-0-0-(0)--|-2--2--(2)-2-(2)-2-||
|-2-2-2-2-2-2-(2)--|-3--3--(3)-3-(3)-3-||
|-3-3-3-3-3-3-(3)--|-3--3--(3)-3-(3)-3-||
|------------------|-1--1--(1)-1-(1)-1-||
|
| Gtr II
| W                  W
|------------------|-------------------||
|------------------|-------------------||
|------------------|-------------------||
|------------------|-------------------||
|------------------|-------------------||
|------------------|-------------------||


 Guitar Solo
  E                                        G#m
   Q          Q         E   E +E      E     Q         Q      E       E  +E  E
|--0----------0---------0---0-(0)-----0--|--4---------4------4-------4--(4)-4-----|
|--0----------0---------0---0-(0)-----0--|--4---------4------4-------4--(4)-4-----|
|--1----------1---------1---1-(1)-----1--|--4---------4------4-------4--(4)-4-----|
|--2----------2---------2---2-(2)-----2--|--6---------6------6-------6--(6)-6-----|
|--2----------2---------2---2-(2)-----2--|--6---------6------6-------6--(6)-6-----|
|--0----------0---------0---0-(0)-----0--|--4---------4------4-------4--(4)-4-----|
|
|  E     +E   E  E     +E   E  E     +E     E  E     +E   E  E      +E   E  E
|----------------------------------------|----------------------------------------|
|------------12------------12------------|-12------------12-----------------------|
|-11b13-(11)----11b13-(11)----11b13-(11)-|----11b13-(11)----11pb13r(11)-----9b11==|
|----------------------------------------|----------------------------------------|
|----------------------------------------|----------------------------------------|
|----------------------------------------|----------------------------------------|


  F#m                              B7
   Q      Q      E  E +E   E         Q     Q      E  E +E  E
|--2------2------2--2-(2)--2-----|---2-----2------2--2-(2)-2-|
|--2------2------2--2-(2)--2-----|---0-----0------0--0-(0)-0-|
|--2------2------2--2-(2)--2-----|---2-----2------2--2-(2)-2-|
|--4------4------4--4-(4)--4-----|---1-----1------1--1-(1)-1-|
|--4------4------4--4-(4)--4-----|---2-----2------2--2-(2)-2-|
|--2------2------2--2-(2)--2-----|---------------------------|
|
| +E  +Q     E  +Q     E   E        +E   Q    E  +Q     Q
|-----------12-(12)--------------|---------------------------|
|-------------------------14pb16r|=(14)-12---12-(12)---------|
|-(9)r(9)------------------------|---------------------------|
|--------------------------------|---------------------------|
|--------------------------------|---------------------------|
|--------------------------------|---------------------------|


  E                                        G#m
   Q          Q         E   E +E      E     Q          Q      E     E +E   E
|--0----------0---------0---0-(0)-----0--|--4----------4------4-----4-(4)--4---|
|--0----------0---------0---0-(0)-----0--|--4----------4------4-----4-(4)--4---|
|--1----------1---------1---1-(1)-----1--|--4----------4------4-----4-(4)--4---|
|--2----------2---------2---2-(2)-----2--|--6----------6------6-----6-(6)--6---|
|--2----------2---------2---2-(2)-----2--|--6----------6------6-----6-(6)--6---|
|--0----------0---------0---0-(0)-----0--|--4----------4------4-----4-(4)--4---|
|
|  E     +E   E  E     +E   E  E     +E     E  E      +E   E  Q        E  +E
|----------------------------------------|-------------------------------------|
|------------12------------12------------|-12-------------12-------------------|
|-11b13-(11)----11b13-(11)----11b13-(11)-|----11pb13r(11)----11b13====11r(11)--|
|----------------------------------------|-------------------------------------|
|----------------------------------------|-------------------------------------|
|----------------------------------------|-------------------------------------|


  F#m
   Q          Q      E  E +E   E
|--2----------2------2--2-(2)--2-----|
|--2----------2------2--2-(2)--2-----|
|--2----------2------2--2-(2)--2-----|
|--4----------4------4--4-(4)--4-----|
|--4----------4------4--4-(4)--4-----|
|--2----------2------2--2-(2)--2-----|
|
|  E      +E  E  E  +Q     E   E
|---------------12-(12)--------------|
|-----------------------------14pb16r|
|-11pb13r(11)-9----------------------|
|------------------------------------|
|------------------------------------|
|------------------------------------|


                               2.
                                      D.S. al Coda
  B7                            F
    Q     Q      E  E +E  E     Q  Q  +E  E +E  E
|---2-----2------2--2-(2)-2--||-1--1--(1)-1-(1)-1--||
|---0-----0------0--0-(0)-0-o||-1--1--(1)-1-(1)-1--||
|---2-----2------2--2-(2)-2--||-2--2--(2)-2-(2)-2--||
|---1-----1------1--1-(1)-1--||-3--3--(3)-3-(3)-3--||
|---2-----2------2--2-(2)-2-o||-3--3--(3)-3-(3)-3--||
|----------------------------||-1--1--(1)-1-(1)-1--||
|
|  +E   Q    E  +H              W
|----------------------------||--------------------||
|-(14)-12---12-(12)---------o||--------------------||
|----------------------------||--------------------||
|----------------------------||--------------------||
|---------------------------o||--------------------||
|----------------------------||--------------------||


 Outro
  &
  D       A        E
  E E E E E E Q    W          +W
|-2-2-2-2-0-0-0--|-0--------|-(0)----*|
|-3-3-3-3-2-2-2--|-0--------|-(0)----*|
|-2-2-2-2-2-2-2--|-1--------|-(1)----*|
|-0-0-0-0-2-2-2--|-2--------|-(2)----*|
|---------0-0-0--|-2--------|-(2)----*|
|----------------|-0--------|-(0)----*|

            
Submit corrections


        Youre Going To Lose That Girl  lessons Hard to play? Try these video lessons and learn fast Youre Going To Lose That Girl  lessons
        
↑ Back to top | Tablatures and chords for acoustic guitar and electric guitar, ukulele, drums are parodies/interpretations of the original songs. You may use it for private study, scholarship, research or language learning purposes only