» » »

Beatles - Sgt Peppers Lonely Hearts Club Band Tabs

Artists:  A B C D E F G H I J K L M N O P Q R S T U V W X Y Z # 

Sgt Peppers Lonely Hearts Club Band Tabs

(ver. 1) Click to play this song!
Beatles
 Rating:
4/5 (4 votes)

 Sgt Peppers Lonely Hearts Club Band  lessons Tabs too difficult? Try these video lessons and learn fast
 
                Gtr I (E A D G B E) - 'George Harrison - Electric Guitar'
Gtr II (E A D G B E) - 'John Lennon - Electric Guitar'
Gtr III (E A D G B E) - 'Horns arr. for Gtr.'
Gtr IV (E A D G B E) - 'Bass arr. for Gtr.'


 Intro
  Q=104
  A7
 4/4
  Gtr I
  H         S S  S  S  +Q        H          S  S  S  S  +Q
|------------------------------|-----------------------------|
|-------------8-10-10-(10)-----|---------------8-10-10-(10)--|
|-----------9------------------|------------9----------------|
|------------------------------|-----------------------------|
|------------------------------|-----------------------------|
|------------------------------|-----------------------------|
|
| Gtr II
| E E E S S E    S  S   E  S S   S E. E. S +S  S  E      Q
|------------------------------|------8----------------------|
|-----------------------5------|---------8-(8)---------------|
|-----6---6--------------------|---6--------------6----------|
|-5-----5---5----5--5------5-5-|-5-------------5-------------|
|---7---7---7----7--7------7-7-|-7-----------------------7---|
|------------------------------|-----------------------------|


                                                    $
  C7                                 G7
  Q   S S  S S +E          E S S E   Q  Q   Q   Q
|------------8-(8)--------10-------|----------------||
|-------8-10-----------------8s6-8-|----------------||
|-----9----------------------------|-7--------------||
|----------------------------------|----------------||
|----------------------------------|------------x/--||
|----------------------------------|----------------||
|
| E E E    S S  S    +S    E E   E   Q  Q  +H
|----------------------------------|----------------||
|----------------------------------|----------------||
|---3-----------7b9==(7)r--7-5---4-|-4--4--(4)------||
|-5---5----5-5---------------------|-3--3--(3)------||
|-3---3----3-3---------------------|-5--5--(5)------||
|----------------------------------|-3--3--(3)------||


 1st & 2nd Verses
  G7        A7          C7        G7
  Q   E E   Q     E E   Q   E E   Q     E E
|-----3-----------5---|-----8-----------3----|
|-----3-----------5---|-----8-----------3----|
|-----4-----------6---|-----9-----------4----|
|---------------------|----------------------|
|---------------------|----------------------|
|---------------------|----------------------|
|
| E E E S S S S E E E   E E E S S S S E E E
|-3-3-3-3-3-5-5-5-5---|-----------3-3-3-3----|
|-3-3-3-3-3-5-5-5-5---|-1-1-1-1-1-3-3-3-3----|
|-4-4-4-4-4-6-6-6-6---|-3-3-3-3-3-4-4-4-4----|
|-3-3-3-3-3-5-5-5-5---|-2-2-2-2-2-3-3-3-3----|
|-5-5-5-5-5-7-7-7-7---|-3-3-3-3-3-5-5-5-5----|
|-3-3-3-3-3-5-5-5-5---|-----------3-3-3-3----|


  G7        A7          C7        G7          A7
  Q   E E   Q     E E   Q   E E   Q     E E   Q     E E   Q     E E
|-----3-----------5---|-----8-----------3---|-------5-----------5------|
|-----3-----------5---|-----8-----------3---|-------5-----------5------|
|-----4-----------6---|-----9-----------4---|-------6-----------6------|
|---------------------|---------------------|--------------------------|
|---------------------|---------------------|--------------------------|
|---------------------|---------------------|--------------------------|
|
| E E E S S S S E E E   E E E S S S S E E E   S S E E S S S S E E S S
|-3-3-3-3-3-5-5-5-5---|-----------3-3-3-3---|-5-5-5-5-5-5-5-5-5-5-5-5--|
|-3-3-3-3-3-5-5-5-5---|-1-1-1-1-1-3-3-3-3---|-5-5-5-5-5-5-5-5-5-5-5-5--|
|-4-4-4-4-4-6-6-6-6---|-3-3-3-3-3-4-4-4-4---|-6-6-6-6-6-6-6-6-6-6-6-6--|
|-3-3-3-3-3-5-5-5-5---|-2-2-2-2-2-3-3-3-3---|-5-5-5-5-5-5-5-5-5-5-5-5--|
|-5-5-5-5-5-7-7-7-7---|-3-3-3-3-3-5-5-5-5---|-7-7-7-7-7-7-7-7-7-7-7-7--|
|-3-3-3-3-3-5-5-5-5---|-----------3-3-3-3---|-5-5-5-5-5-5-5-5-5-5-5-5--|


  C7                         G7       C7
  Q     E E   Q     Q        Q   E  E +Q    S S S S
|-------8------------------|-3---3-/3-(3)---3-3-3-3-|
|-------8------------------|-3---3----------3-3-3-3-|
|-------9------------------|-4---4------------------|
|--------------------------|------------------------|
|-------------------x/-----|------------------------|
|--------------------------|------------------------|
|
| S S E E S S S S E E  S S   E E E  E  E  E E   E
|--------------------------|-3-3-3--3---------------|
|-1-1-1-1-1-1-1-1-1-1--1-1-|-3-3-3--3--1--1-1---1---|
|-3-3-3-3-3-3-3-3-3-3--3-3-|-4-4-4--4--3--3-3---3---|
|-2-2-2-2-2-2-2-2-2-2--2-2-|-3-3-3--3--2--2-2---2---|
|-3-3-3-3-3-3-3-3-3-3--3-3-|-5-5-5--5--3--3-3---3---|
|--------------------------|-3-3-3--3---------------|


                   To Coda
  G7
  E E   Q     H
|-3--------------------------||
|-3--------------------------||
|-4--------------------------||
|----------------------------||
|----------------------------||
|----------------------------||
|
| E S S E S S E S S S S E
|-3-3-3-3-3-3-3-3-3-3-3-3----||
|-3-3-3-3-3-3-3-3-3-3-3-3----||
|-4-4-4-4-4-4-4-4-4-4-4-4----||
|-3-3-3-3-3-3-3-3-3-3-3-3----||
|-5-5-5-5-5-5-5-5-5-5-5-5----||
|-3-3-3-3-3-3-3-3-3-3-3-3----||


 Interlude
  Gtr III
  E  E E E E E E E   E E Q   H         Q   E E E E E E
|------------------|-----------------|-----------------|
|------------------|-----------------|-----1-----------|
|-0----3-2-0-------|-----------------|-0-----3-2-0-----|
|----2-------2---2-|-3---3---3-------|-------------3-2-|
|--------------3---|---3-------------|-----------------|
|------------------|-----------------|-----------------|
|
| Gtr IV
| H.           E E   E E E E E E E E   E E E E H
|------------------|-----------------|-----------------|
|------------------|-----------------|-----------------|
|------------------|-----------------|-----------------|
|-2----------------|---3---1-3-------|-----------------|
|-3------------3-1-|-0---0-----0---0-|-0-----3-3-------|
|------------------|-------------1---|---0-3-----------|


 4/4
  E E E E H                 H               H
|-------------------------|-------------------------|
|---------1---------------|-1---------------3-------|
|-------2-----------------|-------------------------|
|-0-2-3-------------------|-------------------------|
|-------------------------|-------------------------|
|-------------------------|-------------------------|
|
| H       S S S S S S S S   S S S S S S S S H
|-------------------------|-------------------------|
|-------------------------|-----------------3-------|
|-----------------------2-|---------------2---------|
|-0-------0---0-2-3-2-3---|-0---0-2-3-2-3-----------|
|-----------4-------------|---4---------------------|
|-------------------------|-------------------------|
|
| Gtr II
| W                         H               S E. Q
|-------------------------|-------------------2-----|
|-------------------------|-------------------------|
|-------------------------|-------------------------|
|-------------------------|-------------------------|
|-------------------------|-------------------------|
|-------------------------|-------------------------|


  G         Bb                C7           G                  C7
  Gtr I
  E    E Q  E E Q              E  E Q      E E Q              E E Q   E E E E
|---------------------------|-------------------------------|------------------|
|---------------------------|-------------------------------|------------------|
|---------------------------|-------------------------------|------------------|
|---------------------------|--8--8-------------------------|-5-5-----5-5---5--|
|-5----5----8-8-------------|-10-10--------5-5--------------|-3-3-----3-3---3--|
|-3----3----6-6-------------|--8--8--------3-3--------------|------------------|
|
| Gtr II
| H         Q   S    +S   E    Q    E    E Q   S     +S   E   E E E E E E E E
|---------------------------|-------------------------------|------------------|
|-5tr7----------5b7==(5)r---|-------5pb7-------5pb7==(5)r---|-1-1-1-1-1-1-1-1--|
|---------------------------|-------------------------------|-3-3-3-3-3-3-3-3--|
|---------------------------|-------------------------------|-2-2-2-2-2-2-2-2--|
|---------------------------|-------------------------------|-3-3-3-3-3-3-3-3--|
|---------------------------|-------------------------------|------------------|


  G7                    G             Bb
  E E E S S S S E E E   E E Q         E E Q
|---------------------|-------------------------|
|---------------------|-------------------------|
|---------------------|-------------------------|
|---------------------|-------------------------|
|---------------------|-5-5-----------8-8-------|
|-3-3-3-3-3-3-3-3-3-2-|-3-3-----------6-6-------|
|
| E E E S S S S E E E   Q   E    +E   Q   Q
|-3---3-3-3-3-3-3-3-3-|-------------------------|
|-3---3-3-3-3-3-3-3-3-|-----5b7==(5)r-----------|
|-4---4-4-4-4-4-4-4-4-|-------------------5tr6--|
|-3---3-3-3-3-3-3-3-3-|-------------------------|
|-5---5-5-5-5-5-5-5-5-|-------------------------|
|-3---3-3-3-3-3-3-3-3-|-------------------------|


  C7           G              A7
   E  E Q       E   E S S E   E E E  S S E   S S E E
|---------------------------|------------------------|
|---------------------------|------------------------|
|---------------------------|------------------------|
|--8--8---------------------|------------------------|
|-10-10---------5---5-5-5-5-|------------------------|
|--8--8---------3---3-3-3-3-|-5-5-5--5-5-5---5-5-5-5-|
|
|  Q    E E    +E   E E   E   Q   E.   S S S E   E E
|---------------------------|------------------------|
|-------------------7-------|------------------------|
|---------5b7==(5)r---5-----|-----6----6---------5-6-|
|---------------------------|------------5-5---------|
|---------------------------|----------------7-------|
|---------------------------|------------------------|


                  Bridge
  D7               C7                 G7                     A7            C7
  E E Q   H        W                  W                      W
|---------------||------------------|----------------------|-----------------|
|---------------||------------------|----------------------|-----------------|
|---------------||------------------|----------------------|-----------------|
|---------------||------------------|----------------------|-----------------|
|-5-------------||------------------|----------------------|-----------------|
|---------------||------------------|----------------------|-----------------|
|
| H      +H        E E E S S E E Q    E S S E S S S S E Q    E E E E E E E E
|-5------(5)----||------------------|-3-3-3-3-3-3-3-3-3-3--|-5-5-5-5-5-5-5---|
|-7------(7)----||-1-1-1-1-1-1-1-1--|-3-3-3-3-3-3-3-3-3-3--|-5-5-5-5-5-5-5-1-|
|-5------(5)----||-3-3-3-3-3-3-3-3--|-4-4-4-4-4-4-4-4-4-4--|-6-6-6-6-6-6-6-3-|
|-7------(7)----||-2-2-2-2-2-2-2-2--|-3-3-3-3-3-3-3-3-3-3--|-5-5-5-5-5-5-5-2-|
|-5------(5)----||-3-3-3-3-3-3-3-3--|-5-5-5-5-5-5-5-5-5-5--|-7-7-7-7-7-7-7-3-|
|---------------||------------------|-3-3-3-3-3-3-3-3-3-3--|-5-5-5-5-5-5-5---|


         G7            C7                F7                C7
  Gtr II
  +E  Q  E +E  E Q     E E E E E E E E   E E E E E E E E   E E E E E E E E
|--------3-(3)-3-3--||-----------------|-1-1-1-1-1-1-1-1-|-----------------|
|-(1)-1--3-(3)-3-3--||-1-1-1-1-1-1-1-1-|-1-1-1-1-1-1-1-1-|-1-1-1-1-1-1-1-1-|
|-(3)-3--4-(4)-4-4--||-3-3-3-3-3-3-3-3-|-2-2-2-2-2-2-2-2-|-3-3-3-3-3-3-3-3-|
|-(2)-2--3-(3)-3-3--||-2-2-2-2-2-2-2-2-|-1-1-1-1-1-1-1-1-|-2-2-2-2-2-2-2-2-|
|-(3)-3--5-(5)-5-5--||-3-3-3-3-3-3-3-3-|-3-3-3-3-3-3-3-3-|-3-3-3-3-3-3-3-3-|
|--------3-(3)-3-3--||-----------------|-1-1-1-1-1-1-1-1-|-----------------|


                                          Outro
                           D.S. al Coda &
  D7                                       C7
  Gtr I
  W                 W                      W          W
|-----------------|---------------------||----------|------*|
|-----------------|---------------------||----------|------*|
|-----------------|---------------------||----------|------*|
|-----------------|---------------------||----------|------*|
|-----------------|---------------------||----------|------*|
|-----------------|---------------------||----------|------*|
|
| Gtr II
| E E E E E E E E   Q  S E. Q      +Q      W          W
|-5-5-5-5-5-5-5-5-|------8--------------||----------|------*|
|-7-7-7-7-7-7-7-7-|---------8pb10r=(8)--||----------|------*|
|-5-5-5-5-5-5-5-5-|---------------------||----------|------*|
|-7-7-7-7-7-7-7-7-|---------------------||----------|------*|
|-5-5-5-5-5-5-5-5-|---------------------||----------|------*|
|-----------------|---------------------||----------|------*|
            
Submit corrections


        Sgt Peppers Lonely Hearts Club Band  lessons Hard to play? Try these video lessons and learn fast Sgt Peppers Lonely Hearts Club Band  lessons
        
↑ Back to top | Tablatures and chords for acoustic guitar and electric guitar, ukulele, drums are parodies/interpretations of the original songs. You may use it for private study, scholarship, research or language learning purposes only