» » »

Beatles - Please Mister Postman Bass

Artists:  A B C D E F G H I J K L M N O P Q R S T U V W X Y Z # 

Please Mister Postman Bass

(ver. 1) Click to play this song!
Beatles
 Rating:
4/5 (4 votes)

 Please Mister Postman lessons Tabs too difficult? Try these video lessons and learn fast
 
                Gtr I (E A D G) - 'Paul McCartney - Bass'


 Intro
  Q=139
 4/4
  Gtr I
  Wx4
|--------|
|--------|
|--------|
|--------|


                    1st & 3rd Verses
  H    E  E  E E     Q.   E Q  E E   Q.   E Q  E E   Q.   E Q  E E
|----------------||----------------|---------------|----------------|
|--------11-10-9-||o-7----7------6-|-7----7----7-6-|-4----4------2--|
|----------------||o--------7--7---|--------7------|--------4--4----|
|----------------||----------------|---------------|----------------|


  Q.   E E E E E   Q.   E Q.   E   Q.   E E E E E   Q.   E Q  E E
|----------------|---------------|----------------|----------------|
|-4----4---------|---------------|----------------|----------------|
|--------4-0-2-4-|-5----5------4-|-5----5-----4-5-|-7----7------6--|
|----------------|--------5------|--------5-5-----|--------7--7----|


                   2nd & 4th Verses
  Q.   E E E E E    Q.   E Q  E E   Q.   E E E E E   Q.   E Q  E E
|----------------||---------------|----------------|----------------|
|----------------||-7----7------6-|-7----7-----7-6-|-4----4------2--|
|-7----7-----7-9-||--------7--7---|--------7-7-----|--------4--4----|
|--------7-7-----||---------------|----------------|----------------|


  Q.   E H      Q.   E Q  E E   Q.   E +E  E Q    Q.   E Q.   E
|-------------|---------------|-----------------|----------------|
|-4----4------|---------------|-----------------|----------------|
|--------4----|-5----5------4-|-5----5-(5)---5--|-7----7------6--|
|-------------|--------5--5---|------------5----|--------7-------|


                   Chorus
                   1.
  Q.   E E E E E    Q.   E Q.   E   Q.   E Q  E E   Q.   E Q.   E
|----------------||---------------|---------------|----------------|
|--------------6-||-7----7------6-|-7----7----7-6-|-4----4------2--|
|-7----7---7-9---||--------7------|--------7------|--------4-------|
|--------7-------||---------------|---------------|----------------|


  Q.   E Q  Q    Q.   E Q.   E   Q.   E Q  Q    Q.   E Q  E E
|--------------|---------------|--------------|----------------|
|-4----4----4--|---------------|--------------|----------------|
|--------4-----|-5----5-0----4-|-5----5----5--|-7----7------6--|
|--------------|---------------|--------5-----|--------7--7----|


                    2.
  Q.   E E E E E     Q.   E Q.   E   Q.   E Q  E E   Q.   E Q  E E
|-----------------||---------------|---------------|----------------|
|--------------6-o||-7----7--------|-7----7----7-6-|-4----4------2--|
|-7----7---7-9---o||--------7----7-|--------7------|--------4--4----|
|--------7--------||---------------|---------------|----------------|


  Q.   E E E E E   Q.   E Q  E E   Q.   E E E Q    Q.   E H
|----------------|---------------|---------------|-------------|
|-4----4---------|--------7--7---|--------7------|-------------|
|--------4-0-2-4-|-5----5------4-|-5----5-----5--|-7----7-7----|
|----------------|---------------|----------5----|-------------|


                 Outro
  Q.   E H        Q.   E Q  E E   Q.   E Q  Q    Q.   E Q  E E
|-------------||----------------|--------------|----------------|
|-------------||o---------------|--------------|-4----4------2--|
|-7----7-7----||o------4-7--4-7-|------4-7--4--|--------4--4----|
|-------------||--5-------------|-5------------|----------------|


                                               1.,2.
  Q.   E Q  Q    Q.   E Q  E E   Q.   E Q  Q    Q  Q  H
|--------------|---------------|--------------|------------|
|-4----4----4--|---------------|-----------4--|------------|
|--------4-----|-5----5------4-|-5----5-------|-7----------|
|--------------|--------5--5---|--------5-----|------------|


              3.
  W         3x E E E E E E E E   E E E E E E E E
|-----------||-----------------|-----------------*|
|----------o||-----------------|-----------------*|
|----------o||-7-7-7-7-7-7-7-7-|-7-7-7-7-7-7-7-7-*|
|-----------||-----------------|-----------------*|
            
Submit corrections


        Please Mister Postman lessons Hard to play? Try these video lessons and learn fast Please Mister Postman lessons
        
↑ Back to top | Tablatures and chords for acoustic guitar and electric guitar, ukulele, drums are parodies/interpretations of the original songs. You may use it for private study, scholarship, research or language learning purposes only