» » »

Beatles - One After 909 Tabs

Artists:  A B C D E F G H I J K L M N O P Q R S T U V W X Y Z # 

One After 909 Tabs

(ver. 1) Click to play this song!
Beatles
 Rating:
4/5 (4 votes)

 One After 909  lessons Tabs too difficult? Try these video lessons and learn fast
 
                Gtr I (E A D G B E) - 'George Harrison - Electric Guitar'
Gtr II (E A D G B E) - 'John Lennon - Electric Guitar'


 Intro
  Q=195
 4/4
  Gtr I
  Q  E    E     +E   E    E  E   Q  Q  E E +Q     E E E    E     +E   E    Q
|------------------------------|----------------|------------------------------|
|----6pb7-6pb7==(6)r-6pb7------|----0----0-(0)--|-0---6pb7-6pb7==(6)r-6----6\--|
|----6pb7-6pb7==(6)r-6pb7-6--4-|----2----2-(2)--|-2---6pb7-6pb7==(6)r-6----6\--|
|------------------------------|----1----1-(1)--|-1----------------------------|
|------------------------------|----2----2-(2)--|-2----------------------------|
|------------------------------|----------------|------------------------------|
|
| Gtr II
| Q  E    E     +E   E    Q      Q  Q  H          Q   E    E     +E   E    Q
|------------------------------|----2-----------|------------------------------|
|----3pb4-3pb4==(3)r-3pb4-3\---|----0-----------|-----3pb4-3pb4==(3)r-3pb4-3\--|
|----3pb4-3pb4==(3)r-3pb4-3\---|----2-----------|-----3pb4-3pb4==(3)r-3pb4-3\--|
|------------------------------|----1-----------|------------------------------|
|------------------------------|-2--------------|-2----------------------------|
|------------------------------|-------2--------|------------------------------|


  Q  Q  E Q   E   E E E    E     +E   E    Q
|----2----2---2-|-2-------------------------------|
|----0----0---0-|-0---6pb7-6pb7==(6)r-6pb7-6pb7\--|
|----2----2---2-|-2---6pb7-6pb7==(6)r-6pb7-6pb7\--|
|----1----1---1-|-1-------------------------------|
|-2-------------|---------------------------------|
|---------------|---------------------------------|
|
| Q  Q  Q   Q     Q   E    E     +E   E    Q
|----2------2---|---------------------------------|
|----0------0---|-----3pb4-3pb4==(3)r-3pb4-3\-----|
|----2------2---|-----3pb4-3pb4==(3)r-3pb4-3\-----|
|----1------1---|---------------------------------|
|-2-------------|-2-------------------------------|
|-------2-------|---------------------------------|


  Q  Q  E Q   E   Q   E E     +E   E     Q
|----2----2---2-|-2------------------------------||
|----0----0---0-|-0-----6pb7==(6)r-6pb7--6pb8\---||
|----2----2---2-|-2-----6pb7==(6)r---------------||
|----1----1---1-|-1------------------------------||
|-2-------------|--------------------------------||
|---------------|--------------------------------||
|
| Q  Q  Q   Q     E E E E      E   E    +E     E
|----2------2---|-------2----------2----(2)------||
|----0------0---|-------0----------0----(0)------||
|----2------2---|-------2----------2----(2)------||
|----1------1---|-------1----------1----(1)------||
|-2-------------|-2------------------------------||
|-------2-------|--------------------------------||


   1st & 2nd Verses
    Q  Q  H        W              Q  Q      +E   Q.         Q  E E +E  E Q
||-----2---------|--------------|-------------------------|-------------------|
||o----0---------|--------------|----6pb7===(6)r-6pb7\----|----0-0-(0)-0-0----|
||-----2---------|--------------|----6pb7===(6)r-6pb7\----|----2-2-(2)-2-2----|
||-----1---------|--------------|-------------------------|----1-1-(1)-1-1----|
||o-2------------|--------------|-------------------------|-------------------|
||---------------|--------------|-------------------------|-------------------|
|
|   Q  Q  E Q  E   Q  Q  E Q  E   Q  Q       E   Q      E   Q  Q    E  Q   E
||-----2----2--2-|----2----2--2-|----2-----------2------2-|----2-------2---2--|
||o----0----0--0-|----0----0--0-|----0-----------0------0-|----0-------0---0--|
||-----2----2--2-|----2----2--2-|----2-----------2------2-|----2-------2---2--|
||-----1----1--1-|----1----1--1-|----1-----------1------1-|----1-------1---1--|
||o-2------------|-2------------|-2-----------------------|-2-----------------|
||--------2------|-------2------|------------2------------|---------2---------|


  Q  E E E E E E   E E Q  H        Q  E E E E Q     E E E E E E Q
|----------------|---------------|----2-----2-----|-2-2---2---2-----|
|----0-0---0-0---|-0-------------|----0-----0-----|-0-0---0---0-----|
|----2-2---2-2---|-2-------------|----2-----2-----|-2-2---2---2-----|
|----1-1---1-1---|-1-------------|----1-----1-----|-1-1---1---1-----|
|----------------|---------------|----------------|-----------------|
|----------------|---------------|----------------|-----------------|
|
| Q  Q   E Q   E   Q   Q  E Q  E   Q  Q   E Q   E   Q   Q   E Q   E
|----2-----2---2-|-----2----2--2-|----2-----2---2-|-----2-----2---2-|
|----0-----0---0-|-----0----0--0-|----0-----0---0-|-----0-----0---0-|
|----2-----2---2-|-----2----2--2-|----2-----2---2-|-----2-----2---2-|
|----1-----1---1-|-----1----1--1-|----1-----1---1-|-----1-----1---1-|
|-2--------------|-2-------------|-2--------------|-2---------------|
|--------2-------|--------2------|--------2-------|---------2-------|


  E E Q  E S S E E   E E Q  E E E E   Q  Q  +E  E E E   E E E E E E Q
|-2----------2-2---|-2--------------|----0--(0)-0-0-0-|-0-0-0-0-0-0-0---|
|-0----------0-0---|-0--------------|----3--(3)-3-3-3-|-3-3-3-3-3-3-3---|
|-2----------2-2---|-2--------------|----1--(1)-1-1-1-|-1-1-1-1-1-1-1---|
|-1----------1-1---|-1----------0-1-|-2---------------|-----------------|
|------------------|----------2-----|-----------------|-----------------|
|------------------|----------------|-----------------|-----------------|
|
| E E Q  H           E E Q  H         Q  Q   Q    Q     Q   Q   Q   Q
|-2----------------|-2--------------|----0--------0---|-----0-------0---|
|-0----------------|-0--------------|----3--------3---|-----3-------3---|
|-2----------------|-2--------------|----1--------1---|-----1-------1---|
|-1----------------|-1--------------|-2---------------|-2---------------|
|-2----------------|-2--------------|--------2--------|---------2-------|
|------------------|----------------|-----------------|-----------------|


                                    1.
  Q  Q  +E  E Q     W                Q   E      E  E  E   Q
|----2--(2)-2-2---|----------------|----10b11==10-10-10r-10pb11--|
|----0--(0)-0-0---|----------------|-----------------------------|
|----2--(2)-2-2---|----------------|-----------------------------|
|----1--(1)-1-1---|----------------|-----------------------------|
|-----------------|----------------|-----------------------------|
|-----------------|----------------|-----------------------------|
|
| Q  Q   E  Q   E   Q  Q  +E  Q  E   Q   Q         Q      Q
|----2------2---2-|----2--(2)-2--2-|-----2----------------2------|
|----0------0---0-|----5--(5)-5--5-|-----0----------------0------|
|----2------2---2-|----3--(3)-3--3-|-----2----------------2------|
|----1------1---1-|----2--(2)-2--2-|-----1----------------1------|
|-2---------------|----4--(4)-4--4-|-2---------------------------|
|--------2--------|-2--------------|---------------2-------------|


  E  E     +E  E E  E      +E   +E
|-7------------7-7-------------------||
|---10b12-(10)-----10b12==(10)r(10)-o||
|------------------------------------||
|------------------------------------||
|-----------------------------------o||
|------------------------------------||
|
| Q         Q    Q          Q
|-----------2---------------2--------||
|-----------0---------------0-------o||
|-----------2---------------2--------||
|-----------1---------------1--------||
|-2---------------------------------o||
|----------------2-------------------||


                                                      Bridge
  2.
                                                    $
  E Q    E     +Q   E E   E E    +E  E E    +E  Q      Q  Q  Q  E  E
|---7-------------------|---------------------------||----------------|
|-------10b12-(10)--7-6-|-5-------------------------||-------------0--|
|-----------------------|---7pb9r(7)-4-7pb8r(7)-4\--||----------7-(7)-|
|-----------------------|---------------------------||-2-----------6--|
|-----------------------|---------------------------||-------------7--|
|-----------------------|---------------------------||----------------|
|
| Q   Q         Q   Q     Q       E  E E     Q.        Q  Q  Q  Q
|-----2-------------2---|---------2--2-------2------||----0-----0-----|
|-----0-------------0---|---------0--0-------0------||----3-----3-----|
|-----2-------------2---|---------2--2-------2------||----1-----1-----|
|-----1-------------1---|---------1--1-------1------||-2--------------|
|-2---------------------|-2-------------------------||-------2--------|
|---------------2-------|---------------------------||----------------|


  E  E  E E E E Q    W             E Q.    E Q   E
|-----------0---0--|-------------|---7-------7------|
|----0------0---0--|-------------|---7-------7------|
|---(7)-----7---7--|-------------|------------------|
|----6----6-6---6--|-------------|-9-------9-----9s=|
|----7------7---7--|-------------|------------------|
|------------------|-------------|------------------|
|
| Q     Q   Q   Q    Q  Q  Q  Q    Q    Q  Q   Q
|-------0-------0--|----2-----2--|------2-----------|
|-------3-------3--|----0-----0--|------0-----------|
|-------1-------1--|----2-----2--|------2-----------|
|-2----------------|----1-----1--|------1-----------|
|-----------2------|-2-----------|-2-------2---3----|
|------------------|-------2-----|------------------|


   +E  E  E E Q    E E   E  E Q   E E E E   Q  E E E E E E   Q  E E +E  E Q
|---------9--------9---|----------x-x---x-|----------------|------------------|
|--------12-------12---|----------x-x---x-|----7-------7---|-7----7-(7)-------|
|--------10-------10---|---10-----x-x---x-|----9-------9---|-9----9-(9)-------|
|-(11)-----------------|------------------|----8-----8-----|-8--8-------8-6---|
|----------------------|------------------|----------------|------------------|
|----------------------|------------------|----------------|------------------|
|
|   Q     E E E E  Q     Q    E E E E Q     Q  E E E E E E   Q  E E  E  E E E
|----------------------|------------------|----2-----2-2---|----2-2--2--2-2-2-|
|---------2-----2------|------2-----2-----|----2-----2-2---|----2-2--2--2-2-2-|
|---------4-----4------|------4-----4-----|----3-----3-3---|----3-3--3--3-3-3-|
|---------3-----3------|------3-----3-----|----2-----2-2---|----2-2--2--2-2-2-|
|---4------------------|------------------|----4-----4-4---|----4-4--4--4-4-4-|
|----------------------|------------------|----2-----2-2---|----2-2--2--2-2-2-|


  E E H       Q     E E E E E E Q     H      Q   E E   +Q    Q      E  E  Q
|-----------------|-----------------|--------------7-|-(7)----------7----------|
|-5---5-----------|-7p5---5-----5---|----------------|------10b12-----10--7----|
|-7---7-----------|-------7-----7---|----------------|-------------------(0)---|
|-6---6-----------|-----6-6---x-----|----------------|-------------------------|
|-7---7-----------|-------7---x-----|----------------|-------------------------|
|-----------------|-----------------|----------------|-------------------------|
|
| Q   E E E E E E   Q   E E E E E E   Q  E E E E E E    Q    E    E E  Q     E
|-----0-----0-0---|-----0-0---0-0---|----2-----2-2---|-------2---------2-----2-|
|-----3-----3-3---|-----3-3---3-3---|----0-----0-0---|-------0---------0-----0-|
|-----1-----1-1---|-----1-1---1-1---|----2-----2-2---|-------2---------2-----2-|
|-----2-----2-2---|-----2-2---2-2---|----1-----1-1---|-------1---------1-----1-|
|-----------------|-----------------|----2-----2-2---|-------2---------2-----2-|
|-----------------|-----------------|----------------|-------------------------|


  H      Q    E  E       +E   Q         E  E   E  E  E
|---------------------|--------------------------------|
|---------------12b13-|-(12)-12pb13====12-12--12-12r---|
|---------------------|--------------------------------|
|---------------------|--------------------------------|
|---------------------|--------------------------------|
|---------------------|--------------------------------|
|
| Q  Q  +E  E Q           Q          Q    +E   E  Q
|---------------------|--------------------------------|
|----2--(2)-2-2-------|--------------2----(2)--2--2----|
|----4--(4)-4-4-------|--------------4----(4)--4--4----|
|----3--(3)-3-3-------|--------------3----(3)--3--3----|
|-4--4--(4)-4-4-------|---4----------4----(4)--4--4----|
|---------------------|--------------------------------|


  Q  E E Q   Q    E E E E E E Q
|------7--------|-----------------||
|------7-----7--|---7-7-7-7-7-7---||
|------------9--|---9-9-9-9-9-9---||
|------------8--|---8-8-8-8-8-8---||
|------------9--|---9-9-9-9-9-9---||
|---------------|-----------------||
|
| Q  E E E E Q    E E E E E E E E
|----2-2---2-2--|---2-2-2-2-2-2-2-||
|----2-2---2-2--|---2-2-2-2-2-2-2-||
|----3-3---3-3--|---3-3-3-3-3-3-3-||
|----2-2---2-2--|---2-2-2-2-2-2-2-||
|----4-4---4-4--|---4-4-4-4-4-4-4-||
|----2-2---2-2--|---2-2-2-2-2-2-2-||


 3rd & 4th Verses
  E E Q  H        W
|---------------|--------------|
|---7-----------|--------------|
|---8-----------|--------------|
|---7-----------|--------------|
|---------------|--------------|
|---------------|--------------|
|
| Q   Q  E Q  E   Q  Q  E Q  E
|-----2----2--2-|----2----2--2-|
|-----0----0--0-|----0----0--0-|
|-----2----2--2-|----2----2--2-|
|-----1----1--1-|----1----1--1-|
|-2-------------|-2------------|
|--------2------|-------2------|


       |-3-|
   Q   E E E E Q   E        +Q     Q  E  E     +E  E
|-10--10p7---7----10b12==|=(10)r--10--7------------7--|
|----------7---7---------|--------------10b12-(10)----|
|------------------------|----------------------------|
|------------------------|----------------------------|
|------------------------|----------------------------|
|------------------------|----------------------------|
|
|  Q   Q     E Q   E         Q     Q  E  Q         E
|------2-------2---2-----|---------2-----2---------2--|
|------0-------0---0-----|---------0-----0---------0--|
|------2-------2---2-----|---------2-----2---------2--|
|------1-------1---1-----|---------1-----1---------1--|
|--2---------------------|---2------------------------|
|------------2-----------|------------2---------------|


  +Q   E E E E E E   Q  E E H
|-(7)--x-x---x---7-|----7-7--------|
|------x-x---x---7-|----7-7--------|
|------x-x---x---8-|----8-8--------|
|------x-x---x---9-|----9-9--------|
|------------------|---------------|
|------------------|---------------|
|
|  Q   Q   E Q   E   Q  Q   E Q  E
|------2-----2---2-|----2-----2--2-|
|------0-----0---0-|----0-----0--0-|
|------2-----2---2-|----2-----2--2-|
|------1-----1---1-|----1-----1--1-|
|--2---------------|-2-------------|
|----------2-------|--------2------|


   E  E E E  E E E  E       +Q   Q  E    E Q
|------------------------|----------------------|
|-10-10p7---10p7---10b12-|-(10)--7--------------|
|---------7------7-------|----------9b11-9-7\---|
|------------------------|----------------------|
|------------------------|----------------------|
|------------------------|----------------------|
|
|  Q    Q    E Q    E        Q   Q  E    Q    E
|-------2------2----2----|-------2-------2----2-|
|-------0------0----0----|-------0-------0----0-|
|-------2------2----2----|-------2-------2----2-|
|-------1------1----1----|-------1-------1----1-|
|--2---------------------|---2------------------|
|------------2-----------|----------2-----------|


                                                                To Coda
  H      E S S Q    E E Q  E S S E E   Q  Q  E E E E   E Q   E E E E E
|-----------------|------------------|---------------|--------------------|
|------------7-7--|-7----------7-7---|----5--5-5---5-|---5---5-5-5---5----|
|------------8-8--|-8----------8-8---|----7--7-7---7-|---7---7-7-7---7----|
|------------7-7--|-7----------7-7---|----6--6-6---6-|---6---6-6-6---6----|
|-----------------|------------------|-7--7--7-7---7-|---7---7-7-7---7----|
|-----------------|------------------|---------------|--------------------|
|
| E E Q  H          E E Q  H           Q  Q  Q   Q     Q   Q   E E E E
|-2---------------|-2----------------|----0------0---|-----0-----0-0------|
|-0---------------|-0----------------|----3------3---|-----3-----3-3------|
|-2---------------|-2----------------|----1------1---|-----1-----1-1------|
|-1---------------|-1----------------|-2-------------|-2-------------0----|
|-2---------------|-2----------------|-------2-------|---------2----------|
|-----------------|------------------|---------------|--------------------|


  Q  E E E E E E   E Q.      +H
|----7-----7---7-|---------------------|
|----7-----7---7-|---9b11----(9)-------|
|----8-----8---8-|---------------------|
|----7-----7---7-|---------------------|
|----9-----9---9-|---------------------|
|----7-----7---7-|---------------------|
|
| Q  Q   E E E E   Q      Q   E  E E E
|----2-----2-x-2-|--------2------2-x-2-|
|----0-----0-x-0-|--------2------2-x-2-|
|----2-----2-x-2-|--------3------3-x-3-|
|----1-----1-x-1-|--------2------2-x-2-|
|-2--------------|---------------------|
|----------------|-2-------------------|


  Q   E E  E   E      +E   E   E E Q  E E  E  E
|-----7----------------------|-7--------7-----7-||
|----10-------10pb11r(10)-10-|------------------||
|-----8----------------------|------------------||
|-----9----------------------|------------------||
|----------------------------|------------------||
|----------------------------|------------------||
|
| Q   Q   +E   E      +E   E   Q   Q  E E +E  E
|-----2---(2)--2------(2)--2-|-----2----2-(2)-2-||
|-----0---(0)--0------(0)--0-|-----0----0-(0)-0-||
|-----2---(2)--2------(2)--2-|-----2----2-(2)-2-||
|-----1---(1)--1------(1)--1-|-----1----1-(1)-1-||
|-2--------------------------|------------------||
|----------------------------|------------------||


 Guitar Solo
   Q.       E +E   E  Q      H        +E  E       E  E
|-10pb11----7-(7)----------|---------------------------|
|-----------7-(7)-10--7----|---------------------------|
|--------------------------|-9b11-----(9)-9pb11===9r---|
|--------------------------|---------------------------|
|--------------------------|---------------------------|
|--------------------------|---------------------------|
|
|  Q      Q    E   E +E  E   Q     Q  +E  E      +Q
|---------2--------2-(2)-2-|-------2--(2)-2------(2)---|
|---------0--------0-(0)-0-|-------0--(0)-0------(0)---|
|---------2--------2-(2)-2-|-------2--(2)-2------(2)---|
|---------1--------1-(1)-1-|-------1--(1)-1------(1)---|
|--2-----------------------|-2-------------------------|
|--------------2-----------|---------------------------|


  E     +E  Q  E E  E  E   H      E  E  E  E
|------------------------|-------------------|
|------------------------|-------------------|
|-9pb11r(9)-7------------|--------------7--9-|
|--------------7-x-----7-|-----------9-------|
|------------------------|-------------------|
|------------------------|-------------------|
|
| Q         Q  E E +E  E   Q  Q  +E  E +Q
|-----------2----2-(2)-2-|----2--(2)-2-(2)---|
|-----------0----0-(0)-0-|----0--(0)-0-(0)---|
|-----------2----2-(2)-2-|----2--(2)-2-(2)---|
|-----------1----1-(1)-1-|----1--(1)-1-(1)---|
|-2----------------------|-2-----------------|
|--------------2---------|-------------------|


                                     |-3-|
  E     Q   E E  E  E  E   E     +E  E E E  E  E  E  E
|-------7--------------7-|-----------------------------|
|-----------7---10-------|-----------------------------|
|-9pb10------------------|-9pb11r(9)-9p7---------------|
|------------------------|---------------9--7----------|
|------------------------|---------------------9--7s=5-|
|------------------------|-----------------------------|
|
| Q       Q   E  E +E  E   Q         Q     +E  E +Q
|---------2------2-(2)-2-|-----------2-----(2)-2-(2)---|
|---------0------0-(0)-0-|-----------0-----(0)-0-(0)---|
|---------2------2-(2)-2-|-----------2-----(2)-2-(2)---|
|---------1------1-(1)-1-|-----------1-----(1)-1-(1)---|
|-2----------------------|-2---------------------------|
|-------------2----------|-----------------------------|


  Q  Q  E E a  E  E   E Q   E  Q     Q
|-------------------|--------------------|
|-------------------|--------------------|
|-------------------|--------------------|
|-----------------7-|---7------7---------|
|-6---------6s=9----|-------9--------9\--|
|----7--5-7---------|--------------------|
|
| Q  Q  E E   +E  E   Q   Q   +E  E +Q
|----2----2---(2)-2-|-----2---(2)-2-(2)--|
|----0----0---(0)-0-|-----0---(0)-0-(0)--|
|----2----2---(2)-2-|-----2---(2)-2-(2)--|
|----1----1---(1)-1-|-----1---(1)-1-(1)--|
|-2-----------------|-2------------------|
|-------2-----------|--------------------|


  E E E E Q    Q    E E    +Q   Q  Q
|-----------------|-------------------|
|---------7b8-----|---9b10-(9)--------|
|---9p7---7b8-----|---9b10-(9)--7-----|
|-------9------9--|----------------9--|
|-----------------|-------------------|
|-----------------|-------------------|
|
| E E Q   H         E E     Q   H
|-2---------------|-2-----------------|
|-0---------------|-0-----------------|
|-2---------------|-2-----------------|
|-1---------------|-1-----------------|
|-2---------------|-2-----------------|
|-----------------|-------------------|


  Q  E  E  E   E  E       E    +E   E  E  E   Q     Q
|---------------------------|----------------------------|
|---------15--17-17pb19==17-|-(17)-17-17-17rp15----------|
|------16-------------------|----------------------16----|
|---------------------------|----------------------------|
|---------------------------|----------------------------|
|---------------------------|----------------------------|
|
| Q  Q    +E   E +Q             Q      Q     +E  E +E  E
|----0----(0)---------------|----------------------------|
|----3----(3)---------------|----------5-----(5)-5-(5)-5-|
|----1----(1)---------------|----------7-----(7)-7-(7)---|
|----0----(0)---------------|----------6-----(6)-6-(6)---|
|---------------------------|----------5-----(5)-5-(5)---|
|----0----(0)--4-(4)--------|----------4-----(4)-0-(0)-0-|


   Q   S  S  E  +E   E  E  E   E E Q      E  E  E  E
|----------------------------|-----------------------|
|-15-------------------------|-----------------------|
|-----16p14-16-(16)----------|---7h9b11---9-----9--7-|
|-----------16-(16)-16s12--9-|-----------------------|
|----------------------------|-----------------------|
|----------------------------|-----------------------|
|
|  Q   Q        +E   E +E  E   E E Q     +E  E +E  E
|----------------------------|-2---2-----(2)-2-(2)-2-|
|------7--------(7)--7-(7)-7-|-2---2-----(2)-2-(2)-2-|
|------4--------(4)--4-(4)-4-|-3---3-----(3)-3-(3)-3-|
|------7--------(7)--7-(7)-7-|-4---4-----(4)-4-(4)-4-|
|------6--------(6)--6-(6)-6-|-4---4-----(4)-4-(4)-4-|
|--7---7--------(7)--7-(7)-7-|-2---2-----(2)-2-(2)-2-|


                                 D.S. al Coda
  +E  E E E  Q     E  E   E E E E E Q     E
|-----------------------|---------------------||
|-----------------------|---------------------||
|-(7)-------------------|-----7---------------||
|-----9-9-7--9-----7--9-|-----7---7-9---------||
|-----------------------|---9-------------9/--||
|-----------------------|---------------------||
|
|  E  E Q   +E  E +Q      Q   Q   E E +Q
|--2----2---(2)-2-(2)---|-2---2---2-2-(2)-----||
|--0----0---(0)-0-(0)---|-0---0---0-0-(0)-----||
|--2----2---(2)-2-(2)---|-2---2---2-2-(2)-----||
|--1----1---(1)-1-(1)---|-1---1---1-1-(1)-----||
|--2----2---(2)-2-(2)---|-2---2---2-2-(2)-----||
|-----------------------|---------------------||


 Outro
  &
  Q  Q  H        H      E  E E E   E E Q  E E Q    Q  E E  H
|--------------|-----------------|---------------|------------------|
|----7---------|--------x------x-|---x-7--7------|------7-----------|
|----8---------|--------x------x-|---x-8--8------|------9-----------|
|----7---------|--------x------x-|---7-7--7------|------8-----------|
|--------------|--------x------x-|---------------|------9-----------|
|--------------|-----------------|---------------|------------------|
|
| Q  Q  E E Q    Q  Q  +E  E E E   Q   Q  E E Q    Q  Q   +E  E E E
|----2----2----|----2--(2)-2-2---|-2---2----2----|----2---(2)-2-2---|
|----0----0----|----2--(2)-2-2---|-4---4----4----|----2---(2)-2-2---|
|----2----2----|----3--(3)-3-3---|-2---2----2----|----3---(3)-3-3---|
|----1----1----|----2--(2)-2-2---|-4---4----4----|----2---(2)-2-2---|
|-2------------|----4--(4)-4-4---|-2---2----2----|----4---(4)-4-4---|
|--------------|----2--(2)-2-2---|-2---2----2----|----2---(2)-2-2---|


                                                   |--3--|
  Q  E E E E Q    W                 E  E E  E E  E E E   E   E E E E Q  Q
|----7-7-7------|-----------------|---10-7-----------------|------------7--|
|----7-7-7------|-----------------|--------10-7-10---------|------------7--|
|----8-8-8------|-----------------|----------------9p7-----|------------8--|
|----7-7-7------|-----------------|----------------------9-|---7-8-9----7--|
|----9-9-9------|-----------------|------------------------|-9----------9--|
|----7-7-7------|-----------------|------------------------|------------7--|
|
| Q  Q   E E Q    Q  Q  +E  E E E   Q    Q    E  E E   E     E E E E Q  Q
|-2--2-----2----|----2--(2)-2-2---|-2----2----2--2-2---2---|-2-2-2-2----2--|
|-4--4-----4----|----2--(2)-2-2---|-4----4----4--4-4---4---|-4-4-4-4----4--|
|-2--2-----2----|----3--(3)-3-3---|-2----2----2--2-2---2---|-2-2-2-2----2--|
|-4--4-----4----|----2--(2)-2-2---|-4----4----4--4-4---4---|-4-4-4-4----4--|
|-2--2-----2----|----4--(4)-4-4---|-2----2----2--2-2---2---|-2-2-2-2----2--|
|-2--2-----2----|----2--(2)-2-2---|-2----2----2--2-2---2---|-2-2-2-2----2--|


  Q=60
  +W           +W
|-(7)--------|-(7)----*|
|-(7)--------|-(7)----*|
|-(8)--------|-(8)----*|
|-(7)--------|-(7)----*|
|-(9)--------|-(9)----*|
|-(7)--------|-(7)----*|
|
| +W           +W
|-(2)--------|-(2)----*|
|-(4)--------|-(4)----*|
|-(2)--------|-(2)----*|
|-(4)--------|-(4)----*|
|-(2)--------|-(2)----*|
|-(2)--------|-(2)----*|
            
Submit corrections


        One After 909  lessons Hard to play? Try these video lessons and learn fast One After 909  lessons
        
↑ Back to top | Tablatures and chords for acoustic guitar and electric guitar, ukulele, drums are parodies/interpretations of the original songs. You may use it for private study, scholarship, research or language learning purposes only