» » »

Beatles - Money Thats What I Want Tabs

Artists:  A B C D E F G H I J K L M N O P Q R S T U V W X Y Z # 

Money Thats What I Want Tabs

(ver. 1) Click to play this song!
Beatles
 Rating:
4/5 (4 votes)

 Money Thats What I Want  lessons Tabs too difficult? Try these video lessons and learn fast
 
                          E7                   B7                   A7                    A
      0 2 0 1 0 0          x 2 1 2 0 2          x 0 2 0 2 0          x 0 2 2 2 0



Gtr I (E A D G B E) - 'George Harrison - Electric Guitar'
Gtr II (E A D G B E) - 'John Lennon - Electric Guitar'

 Intro
  Q=148
  E7                            E7
 4/4
                              Gtr II
  W            W                E E E E +E  E E E
                                | | | |  |  | | |
                                / / / /  /  / / /

  Gtr I
  Wx2          E E E E Q  E E   E E E E +E  E E E
|------------|----------------|-------------------|
|------------|----------------|-------------------|
|------------|----------------|-------------------|
|------------|----------------|-------------------|
|------------|----------------|-------------------|
|------------|-0-0-3-4-5--3-0-|-3-0-3-5-(5)-3-3-3-|


  B7                          A7                      E7
   E  E      E   E +E E E E   E  E    E  E +E E E E   E E E E +E E E E
   |  |      |   |  | | | |   |  |    |  |  | | | |   | | | |  | | | |
   /  /      /   /  / / / /   /  /    /  /  / / / /   / / / /  / / / /

   E.    S  +E   E  Q   Q     E.   S +E  E  Q   Q     E E E E  Q   E E
|--7-----7--(7)--7--7-------|-5----5-(5)-5--5-------|------------------|
|-10----10-(10)-10-10-------|-8----8-(8)-5--5-------|------------------|
|--8-----8--(8)--8--8-------|-6----6-(6)-6--6-------|------------------|
|--7-----7--(7)--7--7-------|-5----5-(5)-7--7-------|------------------|
|--9-----9--(9)--9--9-------|-7----7-(7)-7--7-------|------------------|
|--7-----7--(7)--7--7-------|-5----5-(5)-5--5-------|-0-0-3-4--5---3-0-|


                     1st - 4th Verses
                  $
    B7                E7                    A       E7
  E E E E E E E E     W          +H     +E  E E E   W
    | | | | | | |     |           |      |  | | |   |
    / / / / / / /     /           /      /  / / /   /

  E E E E E E E E     W          +H     +E  E E E   W
|-----------------||-----------|------------0-0-0-|------|
|-----------------||o----------|------------2-2-2-|------|
|---4-4-4-4-4-4-4-||--1--------|-(1)----(1)-2-2-2-|-1----|
|---4-4-4-4-4-4-4-||--2--------|-(2)----(2)-2-2-2-|-2----|
|---2-2-2-2-2-2-2-||o-2--------|-(2)----(2)-0-0-0-|-2----|
|-----------------||--0--------|-(0)----(0)-------|-0----|


                     A7
  +H     +E  E E E   E E E E +E E E E
   |      |  | | |   | | | |  | | | |
   /      /  / / /   / / / /  / / / /

  +H     +E  E E E   Q   E E  Q   Q
|------------------|-----5-5------5---|
|------------------|-----8-8------8---|
|-(1)----(1)-1-1-1-|-----6-6------6---|
|-(2)----(2)-2-2-2-|-----5-5------5---|
|-(2)----(2)-2-2-2-|-----7-7------7---|
|-(0)----(0)-0-0-0-|-----5-5------5---|


                       Chorus
                        E7
   E  E E E +E E E E    E E E E +E E E E
   |  | | |  | | | |    | | | |  | | | |
   /  / / /  / / / /    / / / /  / / / /

  +H         E E Q      Q   Q    Q   E E
|-(5)----------5-----||-----0--------0-0--|
|-(8)----------8-----||-----3--------3-3--|
|-(6)----------6-----||-----1--------1-1--|
|-(5)----------5-----||-----0--------0-0--|
|-(7)----------7-----||-----2--------2-2--|
|-(5)----------5-----||-----0--------0-0--|


                     B7                 A7
  E E E E +E E E E   E E E E +E E E E   E E E E +E E E E
  | | | |  | | | |   | | | |  | | | |   | | | |  | | | |
  / / / /  / / / /   / / / /  / / / /   / / / /  / / / /

  Q   Q    Q   E E   Q   E E  Q   Q     Q   E E  Q   E E
|-----0--------0-0-|-----2-2------2---|-----0-0------0-0-|
|-----3--------3-3-|-----4-4------4---|-----2-2------2-2-|
|-----1--------1-1-|-----2-2------2---|-----0-0------0-0-|
|-----0--------0-0-|-----4-4------4---|-----2-2------2-2-|
|-----2--------2-2-|-----2-2------2---|-----0-0------0-0-|
|-----0--------0-0-|------------------|------------------|


                    1.,2.
  E7                   B7
  E E E E +E E E E   E  E  E  E  E  E  E  E
  | | | |  | | | |      |  |  |  |  |  |  |
  / / / /  / / / /      /  /  /  /  /  /  /

  Q   E E  Q   Q     E  E  E  E  E  E  E  E   3x
|------------------|----7--7--7--7--7--7--7---||
|------------------|---10-10-10-10-10-10-10--o||
|------------------|----8--8--8--8--8--8--8---||
|-----2-2------2---|----7--7--7--7--7--7--7---||
|-----2-2------2---|----9--9--9--9--9--9--9--o||
|-----0-0------0---|----7--7--7--7--7--7--7---||


                             Interlude
  3.,D.S.
                   To Coda
  B7                          E7
   E  E  E  E  E  E  E  E     E E E E +E E E E
   |  |  |  |  |  |  |  |     | | | |  | | | |
   /  /  /  /  /  /  /  /     / / / /  / / / /

   E  E  E  E  E  E  E  E     E E E E  Q   E E
|--7--7--7--7--7--7--7--7--||------------------|
|-10-10-10-10-10-10-10-10--||------------------|
|--8--8--8--8--8--8--8--8--||------------------|
|--7--7--7--7--7--7--7--7--||------------------|
|--9--9--9--9--9--9--9--9--||------------------|
|--7--7--7--7--7--7--7--7--||-0-0-3-4--5---3-0-|


  E E E E +E  E E E   E E E E +E E E E
  | | | |  |  | | |   | | | |  | | | |
  / / / /  /  / / /   / / / /  / / / /

  E E E E +E  E E E   E E E E  Q   E E
|-------------------|------------------|
|-------------------|------------------|
|-------------------|------------------|
|-------------------|------------------|
|-------------------|------------------|
|-3-0-3-5-(5)-3-3-3-|-0-0-3-4--5---3-0-|


                      B7
  E E E E +E  E E E    E  E      E   E +E E E E
  | | | |  |  | | |    |  |      |   |  | | | |
  / / / /  /  / / /    /  /      /   /  / / / /

  E E E E +E  E E E    E.    S  +E   E  Q   Q
|-------------------|--7-----7--(7)--7--7-------|
|-------------------|-10----10-(10)-10-10-------|
|-------------------|--8-----8--(8)--8--8-------|
|-------------------|--7-----7--(7)--7--7-------|
|-------------------|--9-----9--(9)--9--9-------|
|-3-0-3-5-(5)-3-3-3-|--7-----7--(7)--7--7-------|


  A7                      E7
  E  E    E  E +E E E E   E E E E +E E E E
  |  |    |  |  | | | |   | | | |  | | | |
  /  /    /  /  / / / /   / / / /  / / / /

  E.   S +E  E  Q   Q     E E E E  Q   E E
|-5----5-(5)-5--5-------|-------------------|
|-8----8-(8)-8--8-------|-------------------|
|-6----6-(6)-6--6-------|-------------------|
|-5----5-(5)-5--5-------|-------------------|
|-7----7-(7)-7--7-------|-------------------|
|-5----5-(5)-5--5-------|-0-0-3-4--5---3-0--|


      D.S. al Coda &
    B7                B7
  E E E E E E E E     E E E E E E E E
    | | | | | | |     | | | | | | | |
    / / / / / / /     / / / / / / / /

  Gtr II
  E E E E E E E E     E E E E E E E E
|---2-2-2-2-2-2-2--||-2-2-2-2-2-2-2-2-|
|---4-4-4-4-4-4-4--||-4-4-4-4-4-4-4-4-|
|---2-2-2-2-2-2-2--||-2-2-2-2-2-2-2-2-|
|---4-4-4-4-4-4-4--||-4-4-4-4-4-4-4-4-|
|---2-2-2-2-2-2-2--||-2-2-2-2-2-2-2-2-|
|------------------||-----------------|


   Out-Chorus
    E7
    E E E E +E E E E   E E E E +E E E E   E E E E +E E E E
    | | | |  | | | |   | | | |  | | | |   | | | |  | | | |
    / / / /  / / / /   / / / /  / / / /   / / / /  / / / /

    Q   E E  Q   Q     Q   E E  Q   Q     Q   E E  Q   Q
||------7-7------7---|-----7-7------7---|-----7-7------7---|
||o-----9-9------9---|-----9-9------9---|-----9-9------9---|
||------7-7------7---|-----7-7------7---|-----7-7------7---|
||------9-9------9---|-----9-9------9---|-----9-9------9---|
||o-----7-7------7---|-----7-7------7---|-----7-7------7---|
||-------------------|------------------|------------------|


                     A7                                    E7
  E E E E +E E E E   E E E E +E E E E   E E E E +E E E E   E E E E +E E E E
  | | | |  | | | |   | | | |  | | | |   | | | |  | | | |   | | | |  | | | |
  / / / /  / / / /   / / / /  / / / /   / / / /  / / / /   / / / /  / / / /

  Q   E E  Q   Q     Q   Q    Q   E E   Q   Q    Q   E E   Q   E E  Q   Q
|-----7-7------7---|-----5--------5-5-|-----5--------5-5-|-----7-7------7----|
|-----9-9------9---|-----8--------8-8-|-----8--------8-8-|-----9-9------9----|
|-----7-7------7---|-----6--------6-6-|-----6--------6-6-|-----7-7------7----|
|-----9-9------9---|-----5--------5-5-|-----5--------5-5-|-----9-9------9----|
|-----7-7------7---|-----7--------7-7-|-----7--------7-7-|-----7-7------7----|
|------------------|-----5--------5-5-|-----5--------5-5-|-------------------|


                     B7
  E E E E +E E E E   E E  E  E +E E  E E
  | | | |  | | | |   | |  |  |  | |  | |
  / / / /  / / / /   / /  /  /  / /  / /

  Q   E E  E E E E   Q    E  E  Q    Q
|-----7-7----7-7-7-|------7--7-------7---|
|-----9-9----9-9-9-|-----10-10------10---|
|-----7-7----7-7-7-|------8--8-------8---|
|-----9-9----9-9-9-|------7--7-------7---|
|-----7-7----7-7-7-|------9--9-------9---|
|------------------|------7--7-------7---|


                    1.
  A7                 E7
  E E E E +E E E E   E E E E +E E E E
  | | | |  | | | |   | | | |  | | | |
  / / / /  / / / /   / / / /  / / / /

  Q   E E  E E E E   Q   E E  Q   Q
|-----5-5----5-5-5-|-----7-7------7----|
|-----8-8----8-8-8-|-----9-9------9----|
|-----6-6----6-6-6-|-----7-7------7----|
|-----5-5----5-5-5-|-----9-9------9----|
|-----7-7----7-7-7-|-----7-7------7----|
|-----5-5----5-5-5-|-------------------|


                             2.                 H.=H
  B7                          E7
   E  E  E  E  E  E  E  E     E E E E E E E E   E E E E +H       +W
   |  |  |  |  |  |  |  |     | | | | | | | |   |     |  |        |
   /  /  /  /  /  /  /  /     / / / / / / / /   /     /  /        /

   E  E  E  E  E  E  E  E     Q   E E Q   Q     E E E E +H       +W
|--7--7--7--7--7--7--7--7--||-----7-7-----7---|-7-----7-(7)----|-(7)----*|
|-10-10-10-10-10-10-10-10-o||-----9-9-----9---|-9-----9-(9)----|-(9)----*|
|--8--8--8--8--8--8--8--8--||-----7-7-----7---|-7-----7-(7)----|-(7)----*|
|--7--7--7--7--7--7--7--7--||-----9-9-----9---|-9-----9-(9)----|-(9)----*|
|--9--9--9--9--9--9--9--9-o||-----7-7-----7---|-7-----7-(7)----|-(7)----*|
|--7--7--7--7--7--7--7--7--||-----------------|----------------|--------*|
            
Submit corrections


        Money Thats What I Want  lessons Hard to play? Try these video lessons and learn fast Money Thats What I Want  lessons
        
↑ Back to top | Tablatures and chords for acoustic guitar and electric guitar, ukulele, drums are parodies/interpretations of the original songs. You may use it for private study, scholarship, research or language learning purposes only