» » »

Beatles - Matchbox Tabs

Artists:  A B C D E F G H I J K L M N O P Q R S T U V W X Y Z # 

Matchbox Tabs

(ver. 1) Click to play this song!
Beatles
 Rating:
4/5 (4 votes)

 Matchbox  lessons Tabs too difficult? Try these video lessons and learn fast
 
                Gtr I (E A D G B E) - 'George Harrison - Electric Guitar'
Gtr II (E A D G B E) - 'John Lennon - Electric Guitar'


 Intro
  Q=154(8=s8)
  N.C.
 4/4
  Gtr I
  E E E E E E E E   E E E E E E E E    E E E E E E E E
|-----------------|-----------------||-----------------|
|-----------------|-----------------||-5-5-----5-5-----|
|-----------------|-----------------||-----5-6-----5-6-|
|-2-2---2-2-2---2-|-2-2---2-2-2---2-||-----------------|
|-----3-------3---|-----3-------3---||-----------------|
|-----------------|-----------------||-----------------|
|
| Gtr II
| Q   Q   Q   Q     Q   Q   Q   Q      E E E E E E E E
|-----------------|-----------------||-----------------|
|-----------------|-----------------||-----------------|
|-----------------|-----------------||-----------------|
|-----------------|-----------------||---------2-2-----|
|-0-------0-------|-0-------0-------||-0-0-3-4-----3-4-|
|-----3-------3---|-----3-------3---||-----------------|


                     1st - 5th Verses
                  $
                      N.C.
  E E E E E E E E     E E E E E E E E   E E E E E E E E   E E E E E E E E
|-----------------||------------------|-----------------|------------------|
|-5-5-----5-5-----||o-5-5-----5-5-----|-5-5-----5-5-----|-5-5-----5-5------|
|-----5-6-----5-6-||------5-6-----5-6-|-----5-6-----5-6-|-----5-6-----5-6--|
|-----------------||------------------|-----------------|------------------|
|-----------------||o-----------------|-----------------|------------------|
|-----------------||------------------|-----------------|------------------|
|
| E E E E E E E E     E E E E E E E E   E E E E E E E E   E E E E E E E E
|-----------------||------------------|-----------------|------------------|
|-----------------||o-----------------|-----------------|------------------|
|-----------------||------------------|-----------------|------------------|
|---------2-2-----||----------2-2-----|---------2-2-----|---------2-2------|
|-0-0-3-4-----3-4-||o-0-0-3-4-----3-4-|-0-0-3-4-----3-4-|-0-0-3-4-----3-4--|
|-----------------||------------------|-----------------|------------------|


  E E E E E E E E   E E E E E E E E   E E E E E E E E   E E E E E E E E
|-----------------|-5-5-----5-5-----|-5-5-----5-5-----|------------------|
|-5-5-----5-5-----|-----6-7-----6-7-|-----6-7-----6-7-|-5-5-----5-5------|
|-----5-6-----5-6-|-----------------|-----------------|-----5-6-----5-6--|
|-----------------|-----------------|-----------------|------------------|
|-----------------|-----------------|-----------------|------------------|
|-----------------|-----------------|-----------------|------------------|
|
| Q   Q   Q   Q     E E E E E E E E   E E E E E E E E   E E E E E E E E
|-----------------|-----------------|-----------------|------------------|
|-----------------|-----------------|-----------------|------------------|
|-----------------|---------2-2-----|---------2-2-----|------------------|
|-----------------|-0-0-3-4-----3-4-|-0-0-3-4-----3-4-|---------2-2------|
|-0---2---3---4---|-----------------|-----------------|-0-0-3-4-----3-4--|
|-----------------|-----------------|-----------------|------------------|


  E E E E E E E E   E   E   E E E   E   E E
|-----------------|---------4-4-7---7---4---|
|-5-5-----5-5-----|-5---5-----------------5-|
|-----5-6-----5-6-|-------------------------|
|-----------------|-------------------------|
|-----------------|-------------------------|
|-----------------|-------------------------|
|
|                   |--3--|     |--3--|
| E E E E E E E E   E E   E Q   E E   E Q
|-----------------|-------------------------|
|-----------------|-------------------------|
|-----------------|-------------------------|
|---------2-2-----|-2-2---2-----2-2---2-----|
|-0-0-3-4-----3-4-|-------------------------|
|-----------------|-------------------------|


           To Coda
  E E E E E E E E    E E E E E E E E
|---------5-5------|-----------------|
|-----6-7-----6-7--|-5-5-----5-5-----|
|-7-7--------------|-----5-6-----5-6-|
|------------------|-----------------|
|------------------|-----------------|
|------------------|-----------------|
|
| E E E E E E E E    E E E E E E E E
|------------------|-----------------|
|------------------|-----------------|
|---------2-2------|-----------------|
|-0-0-3-4-----3-4--|---------2-2-----|
|------------------|-0-0-3-4-----3-4-|
|------------------|-----------------|


  1.,2.                  3.
  E   E   E E E E E E  3x Q   Q       E Q   E
|----------------------||---------------------||
|-5---5-------5-5-----o||---------------------||
|---------5-6-----5-6--||-----7pb9======7---7-||
|----------------------||---------------------||
|---------------------o||---------------------||
|----------------------||---------------------||
|
| |--3--|
| E E   E E E H        3x E E E     E E E E E
|----------------------||---------------------||
|---------------------o||---------------------||
|----------------------||---------------------||
|-2-2---2-2-2-2--------||-2-2-2-----2-2-0-----||
|---------------------o||-----------------4-2-||
|----------------------||---------------------||


 Guitar Solo
  N.C.
   |---3----|
  +Q    Q   Q   H          E Q   E E Q       E   +E  E E E +E  S S E E
|------------------------|---------5-8b8.5---5-|-(5)-------------------|
|------------------------|---5---8-------------|-----8-5---------------|
|-(7)---7---7---7r-------|---------------------|---------7-(7)-5h7p5---|
|------------------------|---------------------|---------------------7-|
|------------------------|---------------------|-----------------------|
|------------------------|---------------------|-----------------------|
|
|  E  E   E   E E  E E E   E E E E E E     E E    E  E E E  E  E   E E
|------------------------|---------------------|-----------------------|
|------------------------|---------------------|-----------------------|
|------------------------|---------------------|-----------------------|
|---------------2--2-----|---------2-2---------|------------2--2-------|
|--0--0---3---4------3-4-|-0-0-3-4---------3-4-|--0--0-3-4---------3-4-|
|------------------------|---------------------|-----------------------|


  E E E E    +E  S S E E   Q   E E E E E E
|-5----------------------|-----------------|
|-5---5------------------|-5---5---5---5---|
|-5---5-7pb8r(7)-5h7p5---|-5---5---5---5---|
|---7------------------7-|-------7---7---7-|
|------------------------|-----------------|
|------------------------|-----------------|
|
| E E E E     E  E   E E   E E E E E E E E
|------------------------|-----------------|
|------------------------|-----------------|
|------------------------|---------2-2-----|
|-------------2--2-------|-0-0-3-4-----3-4-|
|-0-0-3-4------------3-4-|-----------------|
|------------------------|-----------------|


  E E E E E.   S E E   Q   E E E E E E
|--------------------|------------------|
|-7-7-5---5----------|-----5---5---5-7--|
|-7-7-5---5----------|-----5---5---5-7--|
|-------7------0---0-|-------7---7------|
|----------------0---|------------------|
|--------------------|------------------|
|
| E E E E E  E   E E   E E E E E E E E
|--------------------|------------------|
|--------------------|------------------|
|---------2--2-------|------------------|
|-0-0-3-4--------3-4-|---------2-2------|
|--------------------|-0-0-3-4-----3-4--|
|--------------------|------------------|


  E E E E      +Q    E E   E S S E E E E E S S
|-5---5-8pb8.5r(8)---5---|---------------------|
|-5-8----------------5---|-----------5-----5---|
|----------------------8s|=7-5h7p5-----------7-|
|------------------------|---------7---7-------|
|------------------------|---------------------|
|------------------------|---------------------|
|
| E E E E       E  E E E   E E   E E E E Q
|------------------------|---------------------|
|------------------------|-----------0-0-------|
|------------------------|-------0-0-----0-----|
|---------------2--2-----|-2-2-----------------|
|-0-0-3-4------------3-4-|---------------------|
|------------------------|---------------------|


  Q     E E    +E  E E E   Q   Q   +E  Q   E
|------------------------|-----5---(5)-----5--|
|-------5----------------|-------------8------|
|-7b9-----7pb9r(7)-7-5---|--------------------|
|----------------------7-|-7------------------|
|------------------------|--------------------|
|------------------------|--------------------|
|
| E   E E E     E  E Q     E E E E  E  E E E
|------------------------|--------------------|
|------------------------|--------------------|
|---------------2--2-----|--------------------|
|-0---0-4-4----------4---|----------2--2------|
|------------------------|-0-0-3-4-------3-4--|
|------------------------|--------------------|


                        Outro
                                                       Q=70
        D.S. al Coda  &
                         N.C.                     A6
  +E  Q.     E Q.        W              H      Q  Q    +W           +W
|-(5)-----------------||--------------|-----------2--|-(2)--------|-(2)----*|
|-----8--------8------||--------------|-----------2--|-(2)--------|-(2)----*|
|---------------------||--------------|-----------2--|-(2)--------|-(2)----*|
|---------------------||--------------|-----------2--|-(2)--------|-(2)----*|
|---------------------||--------------|--------------|------------|--------*|
|---------------------||--------------|--------------|------------|--------*|
|
|  E  E  E E E E  E E    E Q.   Q  Q    Q.   E Q  Q    +W           +W
|---------------------||--------------|--------------|------------|--------*|
|---------------------||---8----7--7--|-6----5----5--|-(5)--------|-(5)----*|
|---------------------||---9----8--8--|-7----6----6--|-(6)--------|-(6)----*|
|------------2-2------||--------------|--------------|------------|--------*|
|--0--0--3-4------3-4-||--------------|--------------|------------|--------*|
|---------------------||--------------|--------------|------------|--------*|
            
Submit corrections


        Matchbox  lessons Hard to play? Try these video lessons and learn fast Matchbox  lessons
        
↑ Back to top | Tablatures and chords for acoustic guitar and electric guitar, ukulele, drums are parodies/interpretations of the original songs. You may use it for private study, scholarship, research or language learning purposes only