» » »

Beatles - Ive Just Seen A Face Tabs

Artists:  A B C D E F G H I J K L M N O P Q R S T U V W X Y Z # 

Ive Just Seen A Face Tabs

(ver. 1) Click to play this song!
Beatles
 Rating:
4/5 (4 votes)

 Ive Just Seen A Face  lessons Tabs too difficult? Try these video lessons and learn fast
 
                          F#m                   D                    E                    A
      2 4 4 2 2 2          x x 0 2 3 2          0 2 2 1 0 0          x 0 2 2 2 0



Gtr I (E A D G B E) - 'George Harrison (Gtr.1 - 12-string Ac. Gtr.)'
Gtr II (E A D G B E) - 'George Harrison (El. Gtr.)'
Gtr III (E A D G B E) - 'John Lennon (Nylon Strg. Gtr.)'
Gtr IV (E A D G B E) - 'John Lennon (Ac. Gtr.) '


 Intro
  Q=200
  N.C.              F#m
 4/4
            Gtr IV
  W           H     H         +H      H
                    |          |      |
                    /          /      /

  Gtr I
  H    H      W               +W
|-----------|---------------|-----------------|
|-----------|---------------|-----------------|
|-----------|---------------|-----------------|
|-----------|---------------|-----------------|
|-----------|---------------|-----------------|
|-5----4----|-2-------------|-(2)-------------|
|
| Gtr II
|             |-3-| |-3-|      |-3--| |-3-|
| W           Q Q Q Q Q Q      Q  Q Q Q Q Q
|-----------|---2---2---2---|-----5---5---5---|
|-----------|---------------|-----------------|
|-----------|-2---2---2-----|--6----6---6-----|
|-----------|---------------|-----------------|
|-----------|---------------|-----------------|
|-----------|---------------|-----------------|
|
| Gtr III
|             |-3-| |-3-|      |-3--| |-3-|
| W           Q Q Q Q Q Q      Q  Q Q Q Q Q
|-----------|---------------|-----------------|
|-----------|---------------|-----------------|
|-----------|---2---2---2---|-----6---6---6---|
|-----------|-4---4---4-----|--7----7---7-----|
|-----------|---------------|-----------------|
|-----------|---------------|-----------------|


  +H       H          +H        H
   |       |           |
   /       /           /

  +W                   H        H
|-------------------|--------------------|
|-------------------|--------------------|
|-------------------|--------------------|
|-------------------|--4--------2--------|
|-------------------|--------------------|
|-(2)---------------|--------------------|
|
|  |--3--| |-3--|      |--3--|  |--3--|
|  Q  Q  Q Q  Q Q      Q  Q  Q  Q  Q  Q
|-----9----9----9---|----14----14----14--|
|-------------------|--------------------|
|-11----11---11-----|-14----14----14-----|
|-------------------|--------------------|
|-------------------|--------------------|
|-------------------|--------------------|
|
|  |--3--| |-3--|      |--3--|  |--3--|
|  Q  Q  Q Q  Q Q      Q  Q  Q  Q  Q  Q
|-------------------|-----5-----5-----5--|
|-----7----7----7---|--7-----7-----7-----|
|--6-----6----6-----|--------------------|
|-------------------|--------------------|
|-------------------|--------------------|
|-------------------|--------------------|


           D
   H        H           +H         H
            |            |         |
            /            /         /

   W                    +W
|---------------------|----------------------|
|---------------------|----------------------|
|---------------------|----------------------|
|--0------------------|-(0)------------------|
|---------------------|----------------------|
|---------------------|----------------------|
|
|  |--3--|  |--3--|      |--3---|  |--3--|
|  Q  Q  Q  Q  Q  Q      Q   Q  Q  Q  Q  Q
|----10----10----10---|-----12----12----12---|
|---------------------|----------------------|
|-11----11----11------|-12-----12----12------|
|---------------------|----------------------|
|---------------------|----------------------|
|---------------------|----------------------|
|
|  |--3--|  |--3--|      |--3---|  |--3--|
|  Q  Q  Q  Q  Q  Q      Q   Q  Q  Q  Q  Q
|---------------------|----------------------|
|-----7-----7-----7---|------8-----8-----8---|
|--7-----7-----7------|--9------9-----9------|
|---------------------|----------------------|
|---------------------|----------------------|
|---------------------|----------------------|


  +H         H           +H        H
   |         |            |
   /         /            /

  +W                      H        H
|----------------------|--------------------|
|----------------------|--------------------|
|----------------------|--------------------|
|-(0)------------------|--0-----------------|
|----------------------|-----------4--------|
|----------------------|--------------------|
|
|  |--3---|  |--3--|      |--3--|  |--3--|
|  Q   Q  Q  Q  Q  Q      Q  Q  Q  Q  Q  Q
|-----14----14----14---|----14----14----14--|
|----------------------|--------------------|
|-14-----14----14------|-14----14----14-----|
|----------------------|--------------------|
|----------------------|--------------------|
|----------------------|--------------------|
|
|  |--3---|  |--3--|      |--3--|  |--3--|
|  Q   Q  Q  Q  Q  Q      Q  Q  Q  Q  Q  Q
|----------------------|--------------------|
|-----10----10----10---|----10----10----10--|
|-11-----11----11------|-11----11----11-----|
|----------------------|--------------------|
|----------------------|--------------------|
|----------------------|--------------------|


           E
  +H        H           +H        H
            |            |        |
            /            /        /

   W                     H        H
|---------------------|---------------------||
|---------------------|---------------------||
|---------------------|---------------------||
|---------------------|---------------------||
|--2------------------|--0------------------||
|---------------------|-----------4---------||
|
|  |--3--|  |--3--|      |--3--|  |--3--|
|  Q  Q  Q  Q  Q  Q      Q  Q  Q  Q  Q  Q
|----12----12----12---|----10----10----10---||
|---------------------|---------------------||
|-13----13----13------|-11----11----11------||
|---------------------|---------------------||
|---------------------|---------------------||
|---------------------|---------------------||
|
|  |--3--|  |--3--|      |--3--|  |--3--|
|  Q  Q  Q  Q  Q  Q      Q  Q  Q  Q  Q  Q
|---------------------|---------------------||
|-----9-----9-----9---|-----7-----7-----7---||
|--9-----9-----9------|--7-----7-----7------||
|---------------------|---------------------||
|---------------------|---------------------||
|---------------------|---------------------||


   1st & 2nd Verses
    Fast shuffle Q=200(8=s8)
    A
    Gtr IV
    Q  Q  +E  E Q    Q  Q  +E  E Q    Q  Q  +E  E Q    Q  Q  +E  E Q
    |  |   |  | |    |  |   |  | |    |  |   |  | |    |  |   |  | |
    /  /   /  / /    /  /   /  / /    /  /   /  / /    /  /   /  / /

    Gtr I
    Q  Q  +E  E Q    Q  Q  +E  E Q    Q  Q  +E  E Q    Q  Q  +E  E Q
||-----0--(0)-0-0--|-0--0--(0)-0-0--|-0--0--(0)-0-0--|-0--0--(0)-0-0--|
||o----2--(2)-2-2--|-2--2--(2)-2-2--|-2--2--(2)-2-2--|-2--2--(2)-2-2--|
||-----2--(2)-2-2--|-2--2--(2)-2-2--|-2--2--(2)-2-2--|-2--2--(2)-2-2--|
||-----2--(2)-2-2--|-2--2--(2)-2-2--|-2--2--(2)-2-2--|-2--2--(2)-2-2--|
||o-0--0--(0)-0-0--|-0--0--(0)-0-0--|-0--0--(0)-0-0--|-0--0--(0)-0-0--|
||-----------------|----------------|----------------|----------------|


  F#m
  Q  Q  +E  E Q    Q  Q  +E  E Q    Q  Q  +E  E Q    Q  Q  +E E Q
  |  |   |  | |    |  |   |  | |    |  |   |  | |    |  |   | | |
  /  /   /  / /    /  /   /  / /    /  /   /  / /    /  /   / / /

  Q  Q  +E  E Q    Q  Q  +E  E Q    Q  Q  +E  E Q    H      H
|----2--(2)-2-2--|-2--2--(2)-2-2--|-2--2--(2)-2-2--|----------------|
|----2--(2)-2-2--|-2--2--(2)-2-2--|-2--2--(2)-2-2--|----------------|
|----2--(2)-2-2--|-2--2--(2)-2-2--|-2--2--(2)-2-2--|----------------|
|----4--(4)-4-4--|-4--4--(4)-4-4--|-4--4--(4)-4-4--|-4------2-------|
|----4--(4)-4-4--|-4--4--(4)-4-4--|-4--4--(4)-4-4--|----------------|
|-2--2--(2)-2-2--|-2--2--(2)-2-2--|-2--2--(2)-2-2--|----------------|


  D                               E               A
  Q  Q  +E E Q    Q  Q  +E E Q    Q  Q  +E E Q    Q  Q  +E E  Q
  |  |   | | |    |  |   | | |    |  |   | | |    |  |   | |  |
  /  /   / / /    /  /   / / /    /  /   / / /    /  /   / /  /

  H      H        H      H        H      Q   Q    H      E E +Q
|---------------|---------------|---------------|--------0-0-(0)----||
|---------------|---------------|---------------|--------0-2-(2)---o||
|---------------|---------------|---------------|--------2-2-(2)----||
|-0-------------|-0-------------|---------------|--------2-2-(2)----||
|--------0------|--------4------|-2------0------|------------------o||
|---------------|---------------|------------4--|-0-----------------||


 Bridge
  E                                  D
  Q  Q  +E  E Q    Q  E E +E  E Q    Q  E E +E  E Q    Q  E E +E  E Q
  |  |   |  | |    |  | |  |  | |    |  | |  |  | |    |  | |  |  | |
  /  /   /  / /    /  / /  /  / /    /  / /  /  / /    /  / /  /  / /

  Q  Q  +E  E Q    Q  E E +E  E Q    Q  E E +E  E Q    Q  E E +E  E Q
|-0--0--(0)-0-0--|-0--0-0-(0)-0-0--|-2--2-2-(2)-2-2--|-2--2-2-(2)-2-2---|
|-0--0--(0)-0-0--|-0--0-0-(0)-0-0--|-3--3-3-(3)-3-3--|-3--3-3-(3)-3-3---|
|-1--1--(1)-1-1--|-1--1-1-(1)-1-1--|-2--2-2-(2)-2-2--|-2--2-2-(2)-2-2---|
|-2--2--(2)-2-2--|-2--2-2-(2)-2-2--|-0--0-0-(0)-0-0--|-0--0-0-(0)-0-0---|
|-2--2--(2)-2-2--|-2--2-2-(2)-2-2--|-----------------|------------------|
|-0--0--(0)-0-0--|-0--0-0-(0)-0-0--|-----------------|------------------|


  A                 D                 A
  Q  Q   +E  E Q    Q  E E +E  E Q    Q  Q  +E E Q    Q  Q  +E E Q
  |  |    |  | |    |  | |  |  | |    |  |   | | |    |  |   | | |
  /  /    /  / /    /  / /  /  / /    /  /   / / /    /  /   / / /

  Q  E E +E  E Q    Q  E E +E  E Q    Q  Q   E E Q    Q  Q   E E Q
|-0--0-0-(0)-0-0--|-2--2-2-(2)-2-2--|-0--0---0-0-0--|-0--0---0-0-0---||
|-2--2-2-(2)-2-2--|-3--3-3-(3)-3-3--|-2--2---2-2-2--|-2--2---2-2-2---||
|-2--2-2-(2)-2-2--|-2--2-2-(2)-2-2--|-2--2---2-2-2--|-2--2---2-2-2---||
|-2--2-2-(2)-2-2--|-0--0-0-(0)-0-0--|-2--2---2-2-2--|-2--2---2-2-2---||
|-0--0-0-(0)-0-0--|-----------------|-0--0---0-0-0--|-0--0---0-0-0---||
|-----------------|-----------------|---------------|----------------||


 3rd & 4th Verses
  $
  A
  Q  Q  +E  E Q    Q  Q  +E E Q    Q  Q  +E E Q    Q  Q  +E E Q
  |  |   |  | |    |  |   | | |    |  |   | | |    |  |   | | |
  /  /   /  / /    /  /   / / /    /  /   / / /    /  /   / / /

  Q  Q  +E  E Q    H      H        W               H      H
|-0--0--(0)-0-0--|---------------|---------------|----------------|
|-2--2--(2)-2-2--|---------------|---------------|----------------|
|-2--2--(2)-2-2--|---------------|---------------|----------------|
|-2--2--(2)-2-2--|---------------|---------------|----------------|
|-0--0--(0)-0-0--|-4------2------|-0-------------|-0--------------|
|----------------|---------------|---------------|--------4-------|


  F#m
  Q  Q  +E  E Q    Q  Q  +E  E Q    Q  Q  +E  E Q    Q  Q  +E E Q
  |  |   |  | |    |  |   |  | |    |  |   |  | |    |  |   | | |
  /  /   /  / /    /  /   /  / /    /  /   /  / /    /  /   / / /

  Q  Q  +E  E Q    Q  Q  +E  E Q    Q  Q  +E  E Q    H      H
|----2--(2)-2-2--|-2--2--(2)-2-2--|-2--2--(2)-2-2--|----------------|
|----2--(2)-2-2--|-2--2--(2)-2-2--|-2--2--(2)-2-2--|----------------|
|----2--(2)-2-2--|-2--2--(2)-2-2--|-2--2--(2)-2-2--|----------------|
|----4--(4)-4-4--|-4--4--(4)-4-4--|-4--4--(4)-4-4--|-4------2-------|
|----4--(4)-4-4--|-4--4--(4)-4-4--|-4--4--(4)-4-4--|----------------|
|-2--2--(2)-2-2--|-2--2--(2)-2-2--|-2--2--(2)-2-2--|----------------|


  D                               E               A
  Q  Q  +E E Q    Q  Q  +E E Q    Q  Q  +E E Q    Q  Q  +E E  Q
  |  |   | | |    |  |   | | |    |  |   | | |    |  |   | |  |
  /  /   / / /    /  /   / / /    /  /   / / /    /  /   / /  /

  H      H        H      H        H      Q   Q    H      E E +Q
|---------------|---------------|---------------|--------0-0-(0)---||
|---------------|---------------|---------------|--------0-2-(2)---||
|---------------|---------------|---------------|--------2-2-(2)---||
|-0-------------|-0-------------|---------------|--------2-2-(2)---||
|--------0------|--------4------|-2------0------|------------------||
|---------------|---------------|------------4--|-0----------------||


 Bridge
  E                                  D
  Q  Q  +E  E Q    Q  E E +E  E Q    Q  Q  +E E Q    Q  E E +E E Q
  |  |   |  | |    |  | |  |  | |    |  |   | | |    |  | |  | | |
  /  /   /  / /    /  / /  /  / /    /  /   / / /    /  / /  / / /

  Q  Q  +E  E Q    Q  E E +E  E Q    Q  Q   Q   Q    Q  Q    Q   Q
|-0--0--(0)-0-0--|-0--0-0-(0)-0-0--|-2--2---3---3--|-2--2----3---3---|
|-0--0--(0)-0-0--|-0--0-0-(0)-0-0--|-3--3---3---3--|-3--3----3---3---|
|-1--1--(1)-1-1--|-1--1-1-(1)-1-1--|-2--2---2---2--|-2--2----2---2---|
|-2--2--(2)-2-2--|-2--2-2-(2)-2-2--|-0--0---0---0--|-0--0----0---0---|
|-2--2--(2)-2-2--|-2--2-2-(2)-2-2--|---------------|-----------------|
|-0--0--(0)-0-0--|-0--0-0-(0)-0-0--|---------------|-----------------|


                                                            To Coda
  A                 D                 A
  Q  Q   +E  E Q    Q  E E +E  E Q    Q  Q  +E E Q    Q  Q  +E E Q
  |  |    |  | |    |  | |  |  | |    |  |   | | |    |  |   | | |
  /  /    /  / /    /  / /  /  / /    /  /   / / /    /  /   / / /

  Q  E E +E  E Q    Q  E E +E  E Q    Q  Q   E E Q    Q  Q   E E Q
|-0--0-0-(0)-0-0--|-2--2-2-(2)-2-2--|-0--0---0-0-0--|-0--0---0-0-0---||
|-2--2-2-(2)-2-2--|-3--3-3-(3)-3-3--|-2--2---2-2-2--|-2--2---2-2-2---||
|-2--2-2-(2)-2-2--|-2--2-2-(2)-2-2--|-2--2---2-2-2--|-2--2---2-2-2---||
|-2--2-2-(2)-2-2--|-0--0-0-(0)-0-0--|-2--2---2-2-2--|-2--2---2-2-2---||
|-0--0-0-(0)-0-0--|-----------------|-0--0---0-0-0--|-0--0---0-0-0---||
|-----------------|-----------------|---------------|----------------||


 Guitar Solo
  A
  Q  Q  +E E Q      Q    E E +E E Q    Q  Q  +E E Q    Q  Q  +E E Q
  |  |   | | |      |    | |  | | |    |  |   | | |    |  |   | | |
  /  /   / / /      /    / /  / / /    /  /   / / /    /  /   / / /

  Q  Q   Q   E E   +E  E Q    Q   Q    Q  Q   Q   Q    Q  Q   Q   Q
|----------------|-------------------|---------------|----------------|
|----------------|-------------------|---------------|----------------|
|----------------|-------------------|---------------|----------------|
|-0--0---0-------|-------------------|---------------|----------------|
|------------2-2-|-(2)-0-0----0---4--|-4--0---0---5--|-5--4---4---2---|
|----------------|-------------------|---------------|----------------|


  F#m
  Q  Q  +E E Q      Q    E E +E E Q    Q  Q  +E E Q    Q  Q  +E E Q
  |  |   | | |      |    | |  | | |    |  |   | | |    |  |   | | |
  /  /   / / /      /    / /  / / /    /  /   / / /    /  /   / / /

  Q  Q   Q   E E   +E  E Q    Q   Q    Q  Q   Q   Q    Q  Q   Q   Q
|----------------|-------------------|---------------|----------------|
|----------------|-------------------|---------------|----------------|
|----------------|-------------------|---------------|----------------|
|-0--0---0-------|-------------------|---------------|----------------|
|------------2-2-|-(2)-0-0----0---4--|-4--0---0---5--|-5--4---4---2---|
|----------------|-------------------|---------------|----------------|


  D                                E               A
  Q  Q  +E E Q    Q  E E +E E Q    Q  Q  +E E Q    Q  Q  +E E Q
  |  |   | | |    |  | |  | | |    |  |   | | |    |  |   | | |
  /  /   / / /    /  / /  / / /    /  /   / / /    /  /   / / /

  W               H       H        H      Q   Q    H      H
|---------------|----------------|---------------|--------0-------||
|---------------|----------------|---------------|--------2-------||
|---------------|----------------|---------------|--------2-------||
|---------------|----------------|---------------|--------2-------||
|-0-------------|-2-------0------|---------------|-0------0-------||
|---------------|----------------|-4------2---4--|----------------||


 Bridge
  E                                  D
  Q  Q  +E  E Q    Q  E E +E  E Q    Q  Q   +E  E Q    Q  E E +E  E Q
  |  |   |  | |    |  | |  |  | |    |  |    |  | |    |  | |  |  | |
  /  /   /  / /    /  / /  /  / /    /  /    /  / /    /  / /  /  / /

  Q  Q  +E  E Q    Q  E E +E  E Q    Q  E E +E  E Q    Q  E E +E  E Q
|-0--0--(0)-0-0--|-0--0-0-(0)-0-0--|-2--2-2-(2)-2-2--|-2--2-2-(2)-2-2---|
|-0--0--(0)-0-0--|-0--0-0-(0)-0-0--|-3--3-3-(3)-3-3--|-3--3-3-(3)-3-3---|
|-1--1--(1)-1-1--|-1--1-1-(1)-1-1--|-2--2-2-(2)-2-2--|-2--2-2-(2)-2-2---|
|-2--2--(2)-2-2--|-2--2-2-(2)-2-2--|-0--0-0-(0)-0-0--|-0--0-0-(0)-0-0---|
|-2--2--(2)-2-2--|-2--2-2-(2)-2-2--|-----------------|------------------|
|-0--0--(0)-0-0--|-0--0-0-(0)-0-0--|-----------------|------------------|


                                                           D.S. al Coda
  A                 D                 A
  Q  Q   +E  E Q    Q  E E +E  E Q    Q  Q   +E  E Q    Q  Q   +E  E Q
  |  |    |  | |    |  | |  |  | |    |  |    |  | |    |  |    |  | |
  /  /    /  / /    /  / /  /  / /    /  /    /  / /    /  /    /  / /

  Q  E E +E  E Q    Q  E E +E  E Q    Q  E E +E  E Q    Q  E E +E  E Q
|-0--0-0-(0)-0-0--|-2--2-2-(2)-2-2--|-0--0-0-(0)-0-0--|-0--0-0-(0)-0-0---||
|-2--2-2-(2)-2-2--|-3--3-3-(3)-3-3--|-2--2-2-(2)-2-2--|-2--2-2-(2)-2-2---||
|-2--2-2-(2)-2-2--|-2--2-2-(2)-2-2--|-2--2-2-(2)-2-2--|-2--2-2-(2)-2-2---||
|-2--2-2-(2)-2-2--|-0--0-0-(0)-0-0--|-2--2-2-(2)-2-2--|-2--2-2-(2)-2-2---||
|-0--0-0-(0)-0-0--|-----------------|-0--0-0-(0)-0-0--|-0--0-0-(0)-0-0---||
|-----------------|-----------------|-----------------|------------------||


   Outro
    &
    E                                  D
    Q  Q  +E  E Q    Q  E E +E  E Q    Q  Q   +E  E Q    Q  Q   +E  E Q
    |  |   |  | |    |  | |  |  | |    |  |    |  | |    |  |    |  | |
    /  /   /  / /    /  / /  /  / /    /  /    /  / /    /  /    /  / /

    Q  Q  +E  E Q    Q  E E +E  E Q    Q  E E +E  E Q    Q  E E +E  E Q
||--0--0--(0)-0-0--|-0--0-0-(0)-0-0--|-2--2-2-(2)-2-2--|-2--2-2-(2)-2-2--|
||o-0--0--(0)-0-0--|-0--0-0-(0)-0-0--|-3--3-3-(3)-3-3--|-3--3-3-(3)-3-3--|
||--1--1--(1)-1-1--|-1--1-1-(1)-1-1--|-2--2-2-(2)-2-2--|-2--2-2-(2)-2-2--|
||--2--2--(2)-2-2--|-2--2-2-(2)-2-2--|-0--0-0-(0)-0-0--|-0--0-0-(0)-0-0--|
||o-2--2--(2)-2-2--|-2--2-2-(2)-2-2--|-----------------|-----------------|
||--0--0--(0)-0-0--|-0--0-0-(0)-0-0--|-----------------|-----------------|


                                     1.
  A                 D                 A
  Q  Q   +E  E Q    Q  E E +E  E Q    Q  Q   +E  E Q    Q   Q   +E  E Q
  |  |    |  | |    |  | |  |  | |    |  |    |  | |    |   |    |  | |
  /  /    /  / /    /  / /  /  / /    /  /    /  / /    /   /    /  / /

  Q  E E +E  E Q    Q  E E +E  E Q    Q  E E +E  E Q    Q.    E +Q    Q
|-0--0-0-(0)-0-0--|-2--2-2-(2)-2-2--|-0--0-0-(0)-0-0--|--------------------||
|-2--2-2-(2)-2-2--|-3--3-3-(3)-3-3--|-2--2-2-(2)-2-2--|-------------------o||
|-2--2-2-(2)-2-2--|-2--2-2-(2)-2-2--|-2--2-2-(2)-2-2--|--------------------||
|-2--2-2-(2)-2-2--|-0--0-0-(0)-0-0--|-2--2-2-(2)-2-2--|--------------------||
|-0--0-0-(0)-0-0--|-----------------|-0--0-0-(0)-0-0--|-0-----------------o||
|-----------------|-----------------|-----------------|-------4-(4)---2----||


  2.
  D               E                A
  Q  Q  +E E Q    Q  E E +E E Q    W           +W
  |  |   | | |    |  | |  | | |    |            |
  /  /   / / /    /  / /  / / /    /            /

  H      H        H       Q   Q    H    H      +W
|---------------|----------------|------0----|-(0)----*|
|---------------|----------------|------2----|-(2)----*|
|---------------|----------------|------2----|-(2)----*|
|-0-------------|----------------|------2----|-(2)----*|
|--------4------|-2-------0------|-0----0----|-(0)----*|
|---------------|-------------4--|-----------|--------*|
            
Submit corrections


        Ive Just Seen A Face  lessons Hard to play? Try these video lessons and learn fast Ive Just Seen A Face  lessons
        
↑ Back to top | Tablatures and chords for acoustic guitar and electric guitar, ukulele, drums are parodies/interpretations of the original songs. You may use it for private study, scholarship, research or language learning purposes only