» » »

Beatles - It Wont Be Long Tabs

Artists:  A B C D E F G H I J K L M N O P Q R S T U V W X Y Z # 

It Wont Be Long Tabs

(ver. 1) Click to play this song!
Beatles
 Rating:
4/5 (4 votes)

 It Wont Be Long  lessons Tabs too difficult? Try these video lessons and learn fast
 
                 Intro
  Q=143
             C#m
 4/4
  Gtr II
  W          Q  E E Q  E E   Q  E E Q  E E
|----------|-4--4-4----4-4-|----4-4----4-4-|
|----------|-5--5-5----5-5-|----5-5----5-5-|
|----------|-6--6-6----6-6-|----6-6----6-6-|
|----------|-6--6-6----6-6-|----6-6----6-6-|
|----------|-4--4-4----4-4-|----4-4----4-4-|
|----------|---------------|---------------|


     E                               C#m          A    Ab9
  Q  E E Q  E E   Q  E E Q  E E   Q  E E Q  E E   H    H
|----7-7----7-7-|----7-7----7-7-|----4-4----4-4-|-0----0----|
|----9-9----9-9-|----9-9----9-9-|----5-5----5-5-|-2----2----|
|----9-9----9-9-|----9-9----9-9-|----6-6----6-6-|-2----3----|
|----9-9----9-9-|----9-9----9-9-|----6-6----6-6-|-2----2----|
|----7-7----7-7-|----7-7----7-7-|----4-4----4-4-|-0----0----|
|---------------|---------------|---------------|-----------|


                                                  $
  E
  Gtr I
  Q  E E a E E E    +E     Q  E E a E E E    +E
|------------------------|------------------------|
|------------------------|------------------------|
|------------------------|------------------------|
|----2-1-----------------|----2-1-----------------|
|--------2s4-2-----------|--------2s4-2-----------|
|--------------3b4==(3)r-|-0------------3b4==(3)r-|
|
| Gtr II
| Q  E E   Q   E     E     Q  E E   Q   E     E
|----0-0-------0-----0---|----0-0-------0-----0---|
|----0-0-------0-----0---|----0-0-------0-----0---|
|----1-1-------1-----1---|----1-1-------1-----1---|
|----2-2-------2-----2---|----2-2-------2-----2---|
|------------------------|------------------------|
|------------------------|------------------------|


   1st - 3rd Verses
    E               C
    W               W
||----------------|----------------|
||o---------------|----------------|
||----------------|----------------|
||----------------|-5--------------|
||o---------------|-3--------------|
||--0-------------|----------------|
|
|   Q  E E Q  E E   Q  E E Q  E E
||-----0-0----0-0-|----0-0----0-0--|
||o----0-0----0-0-|----1-1----1-1--|
||-----1-1----1-1-|----0-0----0-0--|
||-----2-2----2-2-|----2-2----2-2--|
||o---------------|----3-3----3-3--|
||----------------|----------------|


  E
  Q  E E a E E E    +E     W
|------------------------|---------------|
|------------------------|---------------|
|------------------------|---------------|
|----2-1-----------------|---------------|
|--------2s4-2-----------|---------------|
|-0------------3b4==(3)r-|-0-------------|
|
| Q  E E   Q   E     E     Q  E E Q  E E
|----0-0-------0-----0---|----0-0----0-0-|
|----0-0-------0-----0---|----0-0----0-0-|
|----1-1-------1-----1---|----1-1----1-1-|
|----2-2-------2-----2---|----2-2----2-2-|
|------------------------|---------------|
|------------------------|---------------|


  C               E
  W               Q  E E a E E E    +E
|---------------|-------------------------|
|---------------|-------------------------|
|---------------|-------------------------|
|-5-------------|----2-1------------------|
|-3-------------|--------2s4-2------------|
|---------------|-0------------3b4==(3)r--|
|
| Q  E E Q  E E   Q  E E   Q   E     E
|----0-0----0-0-|----0-0-------0-----0----|
|----1-1----1-1-|----0-0-------0-----0----|
|----0-0----0-0-|----1-1-------1-----1----|
|----2-2----2-2-|----2-2-------2-----2----|
|----3-3----3-3-|-------------------------|
|---------------|-------------------------|


                         Chorus
                          C#m                             E
  Q  E   E   a E E E E    W               W               W
|----------------------||---------------|---------------|---------------|
|----------------------||---------------|---------------|---------------|
|----------------------||---------------|---------------|---------------|
|----2---1-------------||---------------|---------------|---------------|
|------------2s4-2---2-||-4-------------|---------------|---------------|
|-0----------------4---||---------------|---------------|---------------|
|
| Q  S S S S   E E Q      Q  E E Q  E E   Q  E E Q  E E   Q  E E Q  E E
|----0-0-0-0---0-------||----4-4----4-4-|----4-4----4-4-|----7-7----7-7-|
|----0-0-0-0---0-------||----5-5----5-5-|----5-5----5-5-|----9-9----9-9-|
|----1-1-1-1---1-------||----6-6----6-6-|----6-6----6-6-|----9-9----9-9-|
|----2-2-2-2---2-------||----6-6----6-6-|----6-6----6-6-|----9-9----9-9-|
|----------------------||----4-4----4-4-|----4-4----4-4-|----7-7----7-7-|
|----------------------||---------------|---------------|---------------|


                         To Coda
                  C#m              A    Ab9    E
  W               W                W           Q  E E a E E E    +E
|---------------|----------------|-----------|-------------------------|
|---------------|----------------|-----------|-------------------------|
|---------------|----------------|-----------|-------------------------|
|---------------|----------------|-----------|----2-1------------------|
|---------------|----------------|-----------|--------2s4-2------------|
|---------------|----------------|-----------|--------------3b4==(3)r--|
|
| Q  E E Q  E E   Q  E E Q  E E    H    H      Q  E E   Q   E     E
|----7-7----7-7-|----4-4----4-4--|-0----0----|----0-0-------0-----0----|
|----9-9----9-9-|----5-5----5-5--|-2----2----|----0-0-------0-----0----|
|----9-9----9-9-|----6-6----6-6--|-2----3----|----1-1-------1-----1----|
|----9-9----9-9-|----6-6----6-6--|-2----2----|----2-2-------2-----2----|
|----7-7----7-7-|----4-4----4-4--|-0----0----|-------------------------|
|---------------|----------------|-----------|-------------------------|


                           Bridge
                            E          D#/B       D6
  Q  E E a E E E    +E      W          W          W
|------------------------||----------|----------|----------------|
|------------------------||----------|----------|----------------|
|------------------------||----------|----------|----------------|
|----2-1-----------------||----------|----------|----------------|
|--------2s4-2-----------||----------|----------|----------------|
|-0------------3b4==(3)r-||-0--------|----------|----------------|
|
| Q  E E   Q   E     E      W          W          H    +E  E E E
|----0-0-------0-----0---||-0--------|-3--------|-2----(2)-x-----|
|----0-0-------0-----0---||-0--------|-4--------|-3----(3)-x-3-3-|
|----1-1-------1-----1---||-1--------|-4--------|-4----(4)-x-4-4-|
|----2-2-------2-----2---||-2--------|----------|-0----(0)-x-----|
|------------------------||-2--------|----------|----------------|
|------------------------||-0--------|----------|----------------|


             A              B
  Gtr II
  W          Q  E E Q  Q    Q  E E Q  Q
|----------|----0-0----0--|----2-2----2--|
|-2--------|----2-2----2--|----4-4----4--|
|-4--------|----2-2----2--|----4-4----4--|
|-3--------|----2-2----2--|----4-4----4--|
|-4--------|----0-0----0--|----2-2----2--|
|----------|--------------|--------------|


                   1.                 2.
                                           D.S. al Coda
  F#m7             B7                  B7
  Gtr I
  W                H       E E E E     H       E E E E
|----------------|------------------||------------------||
|----------------|-----------------o||------------------||
|----------------|---------4-4-4-4--||---------4-4-4-4--||
|----------------|---------4-4-4-4--||---------4-4-4-4--||
|----------------|---------2-2-2-2-o||---------2-2-2-2--||
|----------------|------------------||------------------||
|
| Gtr II
| Q  E E E E E E   E E E E E E E E     E E E E E E E E
|----2-2-2-2-2-2-|-2-2-2-2-2-2-2-2--||-2-2-2-2-2-2-2----||
|----2-2-2-2-2-2-|-4-4-4-4-4-4-4-4-o||-4-4-4-4-4-4-4----||
|----2-2-2-2-2-2-|-2-2-2-2-2-2-2-2--||-2-2-2-2-2-2-2-4--||
|----2-2-2-2-2-2-|-4-4-4-4-4-4-4-4--||-4-4-4-4-4-4-4-4--||
|----4-4-4-4-4-4-|-2-2-2-2-2-2-2-2-o||-2-2-2-2-2-2-2-2--||
|----2-2-2-2-2-2-|------------------||------------------||


 Outro
  H.=H
  &
  A             G6 F#7Fmaj7Emaj7
  W          Q  Q  Q  Q    W          +W
|-0--------|----3--2--0--|-4--------|-(4)----*|
|-2--------|----5--5--1--|-4--------|-(4)----*|
|-2--------|----4--3--2--|-4--------|-(4)----*|
|-2--------|----5--4--3--|-2--------|-(2)----*|
|-0--------|-------------|----------|--------*|
|----------|-------------|----------|--------*|

            
Submit corrections


        It Wont Be Long  lessons Hard to play? Try these video lessons and learn fast It Wont Be Long  lessons
        
↑ Back to top | Tablatures and chords for acoustic guitar and electric guitar, ukulele, drums are parodies/interpretations of the original songs. You may use it for private study, scholarship, research or language learning purposes only