» » »

Beatles - Ill Get You Tabs

Artists:  A B C D E F G H I J K L M N O P Q R S T U V W X Y Z # 

Ill Get You Tabs

(ver. 1) Click to play this song!
Beatles
 Rating:
4/5 (4 votes)

 Ill Get You  lessons Tabs too difficult? Try these video lessons and learn fast
 
                Gtr I (E A D G B E) - 'John Lennon - Harmonica '
Gtr II (E A D G B E) - 'George Harrison - Electric Guitar'


 Intro
  Q=136
 4/4
  Gtr I (Harmonica arr. for Gtr.)
  H    Q  E S S   +W           W
|-----------1-4-|-(4)--------|------|
|---------------|------------|------|
|---------------|------------|------|
|---------------|------------|-6----|
|---------------|------------|------|
|---------------|------------|------|


                         1st - 3rd Verses
                      $
  W          W            W                 +W
|-4--------|----------||--4---------------|-(4)---------------|
|-6--------|----------||o-6---------------|-(6)---------------|
|----------|----------||------------------|-------------------|
|----------|-6--------||------------------|-------------------|
|----------|----------||o-----------------|-------------------|
|----------|----------||------------------|-------------------|
|
| Gtr II (El. Gtr.)
| W          W            E E E E E E E E    E  E E E E E E E
|----------|----------||------------------|-------------------|
|----------|----------||o-----------------|-------------------|
|----------|----------||------------------|-------------------|
|----------|----------||--6-6-8-6-6-6-8-6-|--6--6-8-6-6-6-8-6-|
|----------|----------||o-4-4-4-4-4-4-4-4-|--4--4-4-4-4-4-4-4-|
|----------|----------||------------------|-------------------|


  W                 W                 W                 W
|-6---------------|-----------------|-4---------------|-4---------------|
|-7---------------|-----------------|-6---------------|-6---------------|
|-----------------|-----------------|-----------------|-----------------|
|-----------------|-6---------------|-----------------|-----------------|
|-----------------|-----------------|-----------------|-----------------|
|-----------------|-----------------|-----------------|-----------------|
|
| E E E E E E E E   E E E E E E E E   E E E E E E E E   E E E E E E E E
|-----------------|-----------------|-----------------|-----------------|
|-----------------|-----------------|-----------------|-----------------|
|-----------------|-----------------|-----------------|-----------------|
|-----------------|-----------------|-6-6-6-6-6-6-6-6-|-8-8-8-8-8-8-8---|
|-4-4-6-4-4-4-6-4-|-6-6-8-6-6-6-8-6-|-4-4-4-4-4-4-4-4-|-8-8-8-8-8-8-8---|
|-2-2-2-2-2-2-2-2-|-4-4-4-4-4-4-4-4-|-----------------|-6-6-6-6-6-6-6---|


  W                 W                 W                 W
|-6---------------|-----------------|-4---------------|-7---------------||
|-7---------------|-----------------|-----------------|-----------------||
|-----------------|-----------------|-----------------|-----------------||
|-----------------|-6---------------|-----------------|-----------------||
|-----------------|-----------------|-----------------|-----------------||
|-----------------|-----------------|-----------------|-----------------||
|
| E E E E E E E E   E E E E E E E E   E E E E E E E E   E E E E E E E E
|-----------------|-----------------|-----------------|-----------------||
|-----------------|-----------------|-----------------|-----------------||
|-----------------|-----------------|-----------------|-----------------||
|-----------------|-----------------|-6-6-6-6-6-6-6-6-|-----------------||
|-4-4-6-4-4-4-6-4-|-6-6-8-6-6-6-8-6-|-4-4-4-4-4-4-4-4-|-6-6-6-6-6-6-6-6-||
|-2-2-2-2-2-2-2-2-|-4-4-4-4-4-4-4-4-|-----------------|-4-4-4-4-4-4-4-4-||


                                                              To Coda
  W                  W                  W                  W
|-----------------|------------------|------------------|---------------|
|-9---------------|-11---------------|------------------|--9------------|
|-----------------|------------------|-11---------------|-10------------|
|-----------------|------------------|------------------|---------------|
|-----------------|------------------|------------------|---------------|
|-----------------|------------------|------------------|---------------|
|
| E E E E E E E E    E E E E E E E E    E E E E E E E E    E E E E H
|-----------------|------------------|------------------|---------------|
|-----------------|------------------|------------------|---------------|
|-----------------|------------------|------------------|---------------|
|-6-6-8-6-6-6-8-6-|------------------|------------------|---------------|
|-4-4-4-4-4-4-4-4-|--8-8-8-8-8-8-8-8-|--4-4-6-4-4-4-6-4-|--6-6-8-8-6----|
|-----------------|--6-6-6-6-6-6-6-6-|--2-2-2-2-2-2-2-2-|--4-4-4-4-4----|


                  1.
   W                W
|----------------|-----------------||
|--9-------------|----------------o||
|-10-------------|-----------------||
|----------------|-----------------||
|----------------|-11-------------o||
|----------------|-----------------||
|
|  E E E E Q  Q     E E E E Q  Q
|----------------|-----------------||
|----------------|----------------o||
|----------------|-----------------||
|--6-6-8-6-6--6--|-----------------||
|--4-4-4-4-4--4--|--6-6-8-6-6-----o||
|----------------|--4-4-4-4-4------||


                    Bridge
  2.
   W                 W                 W
|-----------------||-----------------|-----------------|
|-----------------||-----------------|-----------------|
|-----------------||-----------------|-----------------|
|-----------------||-----------------|-----------------|
|-11--------------||-----------------|-----------------|
|-----------------||-----------------|-----------------|
|
|  E E E E E E Q     E E E E E E E E   E E E E E E E E
|-----------------||-----------------|-----------------|
|-----------------||-----------------|-----------------|
|-----------------||-----------------|-----------------|
|-----------------||-----------------|-----------------|
|--6-6-8-6-6-6----||-4-4-4-4-4-4-4-4-|-4-4-4-4-4-4-4-4-|
|--4-4-4-4-4-4----||-2-2-2-2-2-2-2-2-|-2-2-2-2-2-2-2-2-|


  Gtr II
  E E E E E E E E   E E E E E E E E   E E E E E E E E   E E E E E E E E
|-----------------|-----------------|-----------------|-----------------|
|-----------------|-----------------|-----------------|-----------------|
|-----------------|-----------------|-----------------|-----------------|
|-6-6-8-6-6-6-8-6-|-6-6-8-6-6-6-8-6-|-8-8-8-8-8-8-8-8-|-8-8-8-8-8-8-8-8-|
|-4-4-4-4-4-4-4-4-|-4-4-4-4-4-4-4-4-|-6-6-6-6-6-6-6-6-|-6-6-6-6-6-6-6-6-|
|-----------------|-----------------|-----------------|-----------------|


                                       Outro
                        D.S. al Coda &
  Gtr I
  W                 W                    W
|-----------------|------------------||------------------|
|-----------------|------------------||--9---------------|
|-----------------|------------------||-10---------------|
|-----------------|------------------||------------------|
|-----------------|------------------||------------------|
|-----------------|------------------||------------------|
|
| Gtr II
| E E E E E E E E   E E E E E E E E      E E E E Q  E E
|-----------------|------------------||------------------|
|-----------------|------------------||------------------|
|-----------------|------------------||------------------|
|-----------------|------------------||--6-6-8-6-6--6-6--|
|-6-6-8-6-6-6-8-6-|-6-6-6-6-6-6-6-6--||--4-4-4-4-4--4-4--|
|-4-4-4-4-4-4-4-4-|-4-4-4-4-4-4-4-4--||------------------|


                                                         Q=76
   W                Q.      E  H         H.           Q     W
|----------------|--------------------|------------------|-------*|
|----------------|-12------11--9------|--------------12--|-------*|
|----------------|-13------11-10------|--------------13--|-13----*|
|----------------|--------------------|------------------|-15----*|
|-11-------------|--------------------|-11---------------|-------*|
|----------------|--------------------|------------------|-------*|
|
|  E E E E Q  Q     E  E E  E  Q  E E    E  E E E Q   Q     W
|----------------|--------------------|------------------|-------*|
|----------------|--------------------|------------------|-------*|
|----------------|--------------------|------------------|-------*|
|----------------|--6--6-8--6--6--6-6-|------------------|--6----*|
|--6-6-8-6-6-----|--4--4-4--4--4--4-4-|--6--6-8-6-6------|--4----*|
|--4-4-4-4-4-----|--------------------|--4--4-4-4-4------|-------*|
            
Submit corrections


        Ill Get You  lessons Hard to play? Try these video lessons and learn fast Ill Get You  lessons
        
↑ Back to top | Tablatures and chords for acoustic guitar and electric guitar, ukulele, drums are parodies/interpretations of the original songs. You may use it for private study, scholarship, research or language learning purposes only