» » »

Beatles - Ill Follow The Sun Tabs

Artists:  A B C D E F G H I J K L M N O P Q R S T U V W X Y Z # 

Ill Follow The Sun Tabs

(ver. 1) Click to play this song!
Beatles
 Rating:
4/5 (4 votes)

 Ill Follow The Sun  lessons Tabs too difficult? Try these video lessons and learn fast
 
                Gtr I (E A D G B E) - 'Paul McCartney - Acoustic Guitar'
Gtr II (E A D G B E) - 'George Harrison - Electric Guitar'


 Intro                                   1st & 2nd Verses
  Q=120
  N.C.                                    G                  F
 4/4
  Gtr II (El. Gtr.)
  E E E E E E E S S   E E E E E E E E     W                  W
|-------------------|-----------------||-------------------|------------------|
|-1---1---3---3-----|-1---1---1---1---||o-0----------------|------------------|
|---0---0---0---0h2-|---2---2---0---0-||--0----------------|------------------|
|-------------------|-----------------||-------------------|------------------|
|-------------------|-----------------||o------------------|------------------|
|-------------------|-----------------||-------------------|------------------|
|
| Gtr I (Ac. Gtr.)
| E E E E E Q   E     E E E E E E Q       Q  E E +E  E E E   Q  E E +E  E E E
|-------0-----------|-------0---------||-------3-(3)-------|------1-(1)-------|
|---1---1---1---1---|-1---1-1---1-----||o------3-(3)-3-3-3-|------1-(1)-1-1-0-|
|---0-------0---0---|-2---2-----0-----||-------------4-4-4-|------------2-2-0-|
|-------------------|---3-------------||-------------------|------------------|
|-3---3-------------|---------3---3---||o------------------|------------------|
|---------3---------|-----------------||--3--3-------------|-1--1-------------|


  C                D                   C      B        D      G
  W                Q   E E +E  Q.      W               W
|----------------|-------0-(0)-------|---------------|---------------|
|----------------|-------3-(3)-3-----|---------------|---------------|
|----------------|-------------------|---------------|---------------|
|----------------|-------------------|---------------|---------------|
|----------------|-------------------|---------------|---------------|
|----------------|-------------------|---------------|---------------|
|
| E E E E E E Q    Q.    E +E  Q   E   E Q  E E Q  E   E Q  E E Q  E
|-----------0-0--|-------2-(2)-2---2-|------0------0-|---2---------0-|
|-----------1-1--|-------3-(3)-3---3-|---1--1---0--0-|------0---0----|
|-0-0-0-0-0------|-------2-(2)-2---2-|---0------0----|---------------|
|-2-2-2-2-2------|-0-----------------|---------------|-0-------------|
|-3-3-3-3-3------|-------------------|-3------2------|---------------|
|----------------|-------------------|---------------|--------3------|


  1.                                        2.
  C                     F       C            C              C7/E
  E E E E  E  E E S S   E E E E E E  E E     H        E  Q  E
|---------------------|-------------------||-------------------|
|-1---1----3----3-----|-1---1---1----1---o||-------------1-----|
|---0---0-----0---0h2-|---2---2---0----0--||----------0-----3--|
|---------------------|-------------------||-------------------|
|---------------------|------------------o||-------------------|
|---------------------|-------------------||-------------------|
|
| E E E E +E  Q   E     E Q   E E Q.         E E E E +E  Q  E
|-------------0-------|---1---0---0-------||-------0-(0)-------|
|-------1-(1)-1---0---|---1---0---1------o||-------1-(1)-1--1--|
|-0-0-0-0-(0)-----0---|---2-------0-------||-0-0-0-0-(0)-0--3--|
|-2-2-2---------------|-3-----------------||-2-2-2----------2--|
|-3-3-3---------------|---------3--------o||-3-3-3-------------|
|---------------------|-------------------||-------------------|


                      Bridge
                    $
                       Dm                Fm6
  +W                   Q  E E +E  Q  E   Q  E E +E  Q   E
|-------------------||-1--1-1-(1)-1--1-|-1--1-1-(1)-1---1-|
|-------------------||-3--3-3-(3)-3--3-|-3--3-3-(3)-3---3-|
|-(3)---------------||-2--2-2-(2)-2--2-|-1--1-1-(1)-1---1-|
|-------------------||-0--0-0-(0)-0--0-|-3--3-3-(3)-3---3-|
|-------------------||-----------------|------------------|
|-------------------||-----------------|------------------|
|
| +E  Q  E +E  Q  E    Q  E E +Q.    E   Q  E E +E  E Q
|-------------------||------1-(1)----1-|------------------|
|-(1)-1--1-(1)-1--1-||------3-(3)----3-|------3-(3)-3-3---|
|-(3)-3--3-(3)-3--3-||------2-(2)----2-|------1-(1)-1-1---|
|-(2)-2--2-(2)-2--2-||-0--0------------|-3--3-3-(3)-3-3---|
|-------------------||-----------------|------------------|
|-------------------||-----------------|------------------|


  C                 C7              Dm                 Fm6
  Q  E E +E  Q  E   Q  H       Q    Q  E E +E  Q   E   Q  E E +E  Q   E
|-0--0-0-(0)-0--0-|-0--0-------0--|-1--1-1-(1)-1---1-|-1--1-1-(1)-1---1-|
|-1--1-1-(1)-1--1-|-1--1-------1--|-3--3-3-(3)-3---3-|-3--3-3-(3)-3---3-|
|-0--0-0-(0)-0--0-|-3--3-------3--|-2--2-2-(2)-2---2-|-1--1-1-(1)-1---1-|
|-2--2-2-(2)-2--2-|-2--2-------2--|-0--0-0-(0)-0---0-|-3--3-3-(3)-3---3-|
|-3--3-3-(3)-3--3-|-3--3-------3--|------------------|------------------|
|-----------------|---------------|------------------|------------------|
|
| Q  E E +E  Q  E   Q  E E E E Q    Q  E E +E  Q.      Q  E E +E  E Q
|------------0----|---------------|------1-(1)-1-----|------------------|
|------1-(1)-1--1-|-1-------------|------3-(3)-3-----|------3-(3)-3-3---|
|------0-(0)-0--3-|-3--3-3-3-3-3--|------2-(2)-2-----|------1-(1)-1-1---|
|---------------2-|-2--2-2-2-2-2--|-0--0-------------|-3--3-3-(3)-3-3---|
|-3--3------------|----3-3-3-3-3--|------------------|------------------|
|-----------------|---------------|------------------|------------------|


                                        3rd & 4th Verses
  C                  Dm                  G                 F
  Q  E E +E  Q   E   Q   E E +E  E Q     W                 W
|-0--0-0-(0)-0---0-|-1---1-1-(1)-1-1--||-----------------|-----------------|
|-1--1-1-(1)-1---1-|-3---3-3-(3)-3-3--||-0---------------|-----------------|
|-0--0-0-(0)-0---0-|-2---2-2-(2)-2-2--||-0---------------|-----------------|
|-2--2-2-(2)-2---2-|-0---0-0-(0)-0-0--||-----------------|-----------------|
|-3--3-3-(3)-3---3-|------------------||-----------------|-----------------|
|------------------|------------------||-----------------|-----------------|
|
| Q  E E +E  E E E   Q.    E +E  E Q     Q.   E +E  E Q    Q.   E +E  Q  E
|------------------|-------1-(1)-1----||------3-(3)-3----|------1-(1)-1--0-|
|------1-(1)-1---1-|-------3-(3)-3----||------3-(3)-3-3--|------1-(1)-1--0-|
|------0-(0)-0---0-|-------2-(2)-2-2--||--------------4--|-----------------|
|------------------|-0-------------0--||-----------------|-----------------|
|-3--3---------3---|------------------||-----------------|-----------------|
|------------------|------------------||-3---------------|-1---------------|


                                                             To Coda
  C                 D                   C      B        D      G
  W                 Q  E E +E  Q.       W               W
|-----------------|------0-(0)--------|---------------|---------------|
|-----------------|------3-(3)-3------|---------------|---------------|
|-----------------|-------------------|---------------|---------------|
|-----------------|-------------------|---------------|---------------|
|-----------------|-------------------|---------------|---------------|
|-----------------|-------------------|---------------|---------------|
|
| Q.   E +E  Q  E   Q  E E  E  E  E E   Q  E E E Q  E   E Q  E E Q  E
|------0-(0)------|------2------------|-------------0-|---2--0---3--0-|
|------1-(1)-1--0-|------3-----3----0-|----------0--0-|---3--0---0--0-|
|------------0--0-|------------2----0-|----------0----|---------------|
|-----------------|-0--0----------0---|-2--2-2--------|-0-------------|
|-3---------------|---------0-----0---|-3--3-3-2------|---------------|
|-----------------|-------------------|---------------|--------3------|


                                  Interlude
  C               F      C         G                 F
  W               W                H       H         H        H
|---------------|---------------||-----------------|------------------|
|---------------|---------------||-3s======8-------|-4s======10-------|
|---------------|---------------||-----------------|------------------|
|---------------|---------------||-----------------|------------------|
|---------------|---------------||-----------------|------------------|
|---------------|---------------||-----------------|------------------|
|
| Q  E E E Q  E   E Q  E E Q  E    E E E E E E E E   E E E E  E E E E
|----------0--0-|---0--0--------||---3---3---3---3-|---3---3----3---3-|
|------1---1--1-|---1--1---1--0-||---3---3---3---3-|---1---1----1---1-|
|------0--------|-2--------0--0-||---4---4---4---4-|---2---2----2---2-|
|---------------|-3-------------||-----------------|------------------|
|-3--3---3------|--------3------||-----------------|------------------|
|---------------|---------------||-3---3---3---3---|-1---1----1---1---|


  C                 D                  C               D      G
  Q   Q   Q   Q      W                 E Q  E E Q  E   E Q  E E Q  E
|-----3s==8---7s==|=10---------------|------0---0----|---2-----------|
|-----------------|------------------|---1--0---0--1-|---3--0---0--0-|
|-----------------|------------------|---0-----------|---2-----------|
|-----------------|------------------|---------------|-0-------------|
|-----------------|------------------|-3------2------|-0-------------|
|-----------------|------------------|---------------|--------3------|
|
| E E E E E E E E    E E E E E E E E   W               W
|-------0---------|----2---2---2---0-|---------------|---------------|
|---1---1---1---0-|----3---3---3---0-|---------------|---------------|
|---0-------0---0-|----2---2---2-----|---------------|---------------|
|-----------------|--0---0---0---0---|---------------|---------------|
|-3---3---3---3---|------------------|---------------|---------------|
|-----------------|------------------|---------------|---------------|


                       D.S. al Coda &
  C                 Bb
  E Q  E +E  Q  E   E Q  E +E  E Q
|------0-(0)------|-----------------||
|---1--1-(1)-1----|---1--1-(1)-1-1--||
|---0--------0--3-|-3-3--3-(3)-3-3--||
|-----------------|-----------------||
|-3---------------|-----------------||
|-----------------|-----------------||
|
| W                 W
|-----------------|-----------------||
|-----------------|-----------------||
|-----------------|-----------------||
|-----------------|-----------------||
|-----------------|-----------------||
|-----------------|-----------------||


  C                 F        C
  E E E E E E E E   E E  E E  H       W
|-----------------|----------------|-------------*|
|-1---1---3---3---|-1----1----1----|-------------*|
|---0---0---0---0-|---2----2--0----|-------------*|
|-----------------|----------------|-------------*|
|-----------------|----------------|-------------*|
|-----------------|----------------|-------------*|
|
| Q   E E E E E E   E Q.      H      +H     H
|-----------------|---0------------|-------------*|
|-------1---1---1-|---1------^1----|-(1)---------*|
|-------0---0---0-|---2------^0----|-(0)---------*|
|-----------------|-3--------^2----|-(2)---------*|
|-3---3---3---3---|----------^3----|-(3)---------*|
|-----------------|----------------|-------------*|
            
Submit corrections


        Ill Follow The Sun  lessons Hard to play? Try these video lessons and learn fast Ill Follow The Sun  lessons
        
↑ Back to top | Tablatures and chords for acoustic guitar and electric guitar, ukulele, drums are parodies/interpretations of the original songs. You may use it for private study, scholarship, research or language learning purposes only