» » »

Beatles - Ill Cry Instead Tabs

Artists:  A B C D E F G H I J K L M N O P Q R S T U V W X Y Z # 

Ill Cry Instead Tabs

(ver. 1) Click to play this song!
Beatles
 Rating:
4/5 (4 votes)

 Ill Cry Instead  lessons Tabs too difficult? Try these video lessons and learn fast
 
                
           G                  Am7/D                 D7                   C7
      3 2 0 0 0 3          3 x 2 0 1 3          x x 0 2 1 2          x 3 2 3 1 0

          Bm                   A7                    D                   Em
      x 2 4 4 3 2          x 0 2 0 2 0          x x 0 2 3 2          0 2 2 0 0 0



Gtr I (E A D G B E) - 'George Harrison - Electric Guitar'
Gtr II (E A D G B E) - 'John Lennon - Acoustic Guitar'


 Intro
  Q=176(8=s8)
                G         Am7/G             Am7/G
 4/4
  Gtr II
  W             E E E E E E E E   E E E E E E E E
                | | | | | | | |   | | | | | | | |
                / / / / / / / /   / / / / / / / /

  Gtr I
  H    Q  E E   Q   E E E E E E   Q   E E E E E E
|-------------|-----3---3-5-5---|-----3---3-5-5----||
|-------------|-----3---3-5-5---|-----3---3-5-5----||
|-------------|-----4---4-5-5---|-----4---4-5-5----||
|-------------|-----5---5-------|-----5---5--------||
|-------------|-----------------|------------------||
|-----------2s|=3---------------|-3----------------||


   1st, 2nd & 4th Verses
    $
    G         Am7/G             Am7/G             Am7/G             Am7/G
    E E E E E E E E   E E E E E E E E   E E E E E E E E   E E E E E E E E
    | | | | | | | |   | | | | | | | |   | | | | | | | |   | | | | | | | |
    / / / / / / / /   / / / / / / / /   / / / / / / / /   / / / / / / / /

    Q   E E E E E E   Q   E E E E E E   Q   E E E E E E   Q   E E E E E E
||------3---3-5-5---|-----3---3-5-5---|-----3---3-5-5---|-----3---3-5-5----|
||o-----3---3-5-5---|-----3---3-5-5---|-----3---3-5-5---|-----3---3-5-5----|
||------4---4-5-5---|-----4---4-5-5---|-----4---4-5-5---|-----4---4-5-5----|
||------5---5-------|-----5---5-------|-----5---5-------|-----5---5--------|
||o-----------------|-----------------|-----------------|------------------|
||--3---------------|-3---------------|-3---------------|-3----------------|


  G         Am7/G             Am7/G   D7
  E E E E E E E E   E E E E E E E E   E E E E  E  E E E   E  E E E  E  E  E E
  | | | | | | | |   | | | | | | | |   | | | |  |  | | |   |  | | |  |  |  | |
  / / / / / / / /   / / / / / / / /   / / / /  /  / / /   /  / / /  /  /  / /

  Q   E E E E E E   Q   E E E E E E   Q   Q   +E  E Q     Q.     E +E  Q.
|-----3---3-5-5---|-----3---3-5-5---|-------------------|-0------------0------|
|-----3---3-5-5---|-----3---3-5-5---|-----3---(3)-3-3---|--------3-(3)--------|
|-----4---4-5-5---|-----4---4-5-5---|-----2---(2)-2-2---|--------2-(2)--------|
|-----5---5-------|-----5---5-------|-0-----------------|---------------------|
|-----------------|-----------------|-------------------|---------------------|
|-3---------------|-3---------------|-------------------|---------------------|


  C7
  E E E E  E  E  E E   E E E E  E  E  E  E
  | | | |  |  |  | |   | | | |  |  |  |  |
  / / / /  /  /  / /   / / / /  /  /  /  /

  H       +E  Q.       Q   E E +E  E +Q
|--------------------|---------------------|
|-1-------(1)-1------|-------------1-(1)---|
|-3-------(3)--------|-3-------------------|
|-2-------(2)--------|-----2---------------|
|--------------------|-------3-(3)---------|
|--------------------|---------------------|


  E E E E  E  E E E   E E E E  E  E E E
  | | | |  |  | | |   | | | |  |  | | |
  / / / /  /  / / /   / / / /  /  / / /

  Q   Q   +E  E Q     Q   E E +H
|-----3---(3)-------|-3-----------------|
|-------------1-----|-------1-(1)-------|
|-------------------|-------------------|
|-------------------|-------------------|
|-3-------------3---|-----3-------------|
|-------------------|-------------------|


                                                         1.
                                               To Coda
  G         Am7/G   D7                G           Am7/G               Am7/G
  E E E E E E E E   E E E E E E E E   E E E E  E  E E E   E E E E  E  E E E
  | | | | | | | |   | | | | | | | |   | | | |  |  | | |   | | | |  |  | | |
  / / / / / / / /   / / / / / / / /   / / / /  /  / / /   / / / /  /  / / /

  Q   E E E E E E   Q   Q   E E E E   Q   Q   +E  E Q     Q   Q   +E  E Q
|-----3---3-5-5---|-----2-----2-2---|-----3---(3)-5-5---|-----3---(3)-5-5----||
|-----3---3-5-5---|-----3-----3-3---|-----3---(3)-5-5---|-----3---(3)-5-5---o||
|-----4---4-5-5---|-----2-----2-2---|-----4---(4)-5-5---|-----4---(4)-5-5----||
|-----5---5-------|-0---------------|-----5---(5)-------|-----5---(5)--------||
|-----------------|-----------------|-------------------|-------------------o||
|-3---------------|-----------------|-3-----------------|-3------------------||


                      Bridge
  2.
  G           Am7/G    Bm
  E E E E  E  E E E    E E E E E E E E    E  E E E  E  E E E
  | | | |  |  | | |    | | | | | | | |    |  | | |  |  | | |
  / / / /  /  / / /    / / / / / / / /    /  / / /  /  / / /

  Q   Q   +E  E Q      Q   Q   E E Q     +Q    E E +Q.     E
|-----3---(3)-5-5---||-------------2---|-(2)-----------------|
|-----3---(3)-5-5---||-----------3-----|-------3-------------|
|-----4---(4)-5-5---||---------4-------|---------4-(4)-------|
|-----5---(5)-------||-----4-----------|---------------------|
|-------------------||-2---------------|---------------------|
|-3-----------------||-----------------|-------------------4s|


  A7
  E E E E  E  E  E  E   E  E E E  E  E  E  E
  | | | |  |  |  |  |   |  | | |  |  |  |  |
  / / / /  /  /  /  /   /  / / /  /  /  /  /

  Q   Q   +E  E +Q      Q.     E +E  E +Q
|-----5---(5)---------|----------------------|
|-----5---(5)-5-(5)---|-8------8-(8)-5-(5)---|
|---------------------|----------------------|
|---------------------|----------------------|
|---------------------|----------------------|
|-5-------------------|----------------------|


  D
  E E E E  E  E E E   E E E E  E  E E E
  | | | |  |  | | |   | | | |  |  | | |
  / / / /  /  / / /   / / / /  /  / / /

  Q   Q   +E  E E E   Q   E E +E  E Q
|-2---2---(2)-------|-2-----------------|
|-3---3---(3)-3-----|-------------3-----|
|---------------2---|-------2-(2)---2---|
|-----------------0-|-----0-------------|
|-------------------|-------------------|
|-------------------|-------------------|


  Em                  A7      D7
  E E E E E E  E  E   E E E E  E  E E E
  | | | | | |  |  |   | | | |  |  | | |
  / / / / / /  /  /   / / / /  /  / / /

  Q   Q   E E +E  E   Q   E E +E  E Q
|-----0-------------|-------------------||
|---------0-3-(3)---|-2-----3-(3)-------||
|-----------------4-|-------------2-----||
|-------------------|---------------0---||
|-------------------|-----0-------------||
|-0-----------------|-------------------||


 3rd Verse
  G         Am7/G             Am7/G             Am7/G             Am7/G
  E E E E E E E E   E E E E E E E E   E E E E E E E E   E E E E E E E E
  | | | | | | | |   | | | | | | | |   | | | | | | | |   | | | | | | | |
  / / / / / / / /   / / / / / / / /   / / / / / / / /   / / / / / / / /

  Q   E E E E E E   Q   E E E E E E   Q   E E E E E E   Q   E E E E E E
|-----3---3-5-5---|-----3---3-5-5---|-----3---3-5-5---|-----3---3-5-5---|
|-----3---3-5-5---|-----3---3-5-5---|-----3---3-5-5---|-----3---3-5-5---|
|-----4---4-5-5---|-----4---4-5-5---|-----4---4-5-5---|-----4---4-5-5---|
|-----5---5-------|-----5---5-------|-----5---5-------|-----5---5-------|
|-----------------|-----------------|-----------------|-----------------|
|-3---------------|-3---------------|-3---------------|-3---------------|


            Am7/G             Am7/G   D7
  E E E E E E E E   E E E E E E E E   E E E E  E  E E E   E  E E E  E  E  E E
  | | | | | | | |   | | | | | | | |   | | | |  |  | | |   |  | | |  |  |  | |
  / / / / / / / /   / / / / / / / /   / / / /  /  / / /   /  / / /  /  /  / /

  Q   E E E E E E   Q   E E E E E E   Q   Q   +E  E Q     Q.     E +E  Q.
|-----3---3-5-5---|-----3---3-5-5---|-------------------|-0------------0------|
|-----3---3-5-5---|-----3---3-5-5---|-----3---(3)-3-3---|--------3-(3)--------|
|-----4---4-5-5---|-----4---4-5-5---|-----2---(2)-2-2---|--------2-(2)--------|
|-----5---5-------|-----5---5-------|-0-----------------|---------------------|
|-----------------|-----------------|-------------------|---------------------|
|-3---------------|-3---------------|-------------------|---------------------|


  C7
  E E E E  E  E  E E   E E E E  E  E  E  E
  | | | |  |  |  | |   | | | |  |  |  |  |
  / / / /  /  /  / /   / / / /  /  /  /  /

  H       +E  Q.       Q   E E +E  E +Q
|--------------------|---------------------|
|-1-------(1)-1------|-------------1-(1)---|
|-3-------(3)--------|-3-------------------|
|-2-------(2)--------|-----2---------------|
|--------------------|-------3-(3)---------|
|--------------------|---------------------|


  E E E E  E  E E E   E E E E  E  E E E
  | | | |  |  | | |   | | | |  |  | | |
  / / / /  /  / / /   / / / /  /  / / /

  Q   Q   +E  E Q     Q   E E +H
|-----3---(3)-------|-3-----------------|
|-------------1-----|-------1-(1)-------|
|-------------------|-------------------|
|-------------------|-------------------|
|-3-------------3---|-----3-------------|
|-------------------|-------------------|


  G         Am7/G   D7                G           Am7/G               Am7/G
  E E E E E E E E   E E E E E E E E   E E E E  E  E E E   E E E E  E  E E E
  | | | | | | | |   | | | | | | | |   | | | |  |  | | |   | | | |  |  | | |
  / / / / / / / /   / / / / / / / /   / / / /  /  / / /   / / / /  /  / / /

  Q   E E E E E E   Q   Q   E E E E   Q   Q   +E  E Q     Q   Q   +E  E Q
|-----3---3-5-5---|-----2-----2-2---|-----3---(3)-5-5---|-----3---(3)-5-5---||
|-----3---3-5-5---|-----3-----3-3---|-----3---(3)-5-5---|-----3---(3)-5-5---||
|-----4---4-5-5---|-----2-----2-2---|-----4---(4)-5-5---|-----4---(4)-5-5---||
|-----5---5-------|-0---------------|-----5---(5)-------|-----5---(5)-------||
|-----------------|-----------------|-------------------|-------------------||
|-3---------------|-----------------|-3-----------------|-3-----------------||


 Bridge
  Bm
  E E E E E E E E    E  E E E  E  E E E
  | | | | | | | |    |  | | |  |  | | |
  / / / / / / / /    /  / / /  /  / / /

  Q   Q   E E Q     +Q    E E +Q.     E
|-------------2---|-(2)-----------------|
|-----------3-----|-------3-------------|
|---------4-------|---------4-(4)-------|
|-----4-----------|---------------------|
|-2---------------|---------------------|
|-----------------|-------------------4s|


  A7
  E E E E  E  E  E  E   E  E E E  E  E  E  E
  | | | |  |  |  |  |   |  | | |  |  |  |  |
  / / / /  /  /  /  /   /  / / /  /  /  /  /

  Q   Q   +E  E +Q      Q.     E +E  E +Q
|-----5---(5)---------|----------------------|
|-----5---(5)-5-(5)---|-8------8-(8)-5-(5)---|
|---------------------|----------------------|
|---------------------|----------------------|
|---------------------|----------------------|
|-5-------------------|----------------------|


  D
  E E E E  E  E E E   E E E E  E  E E E
  | | | |  |  | | |   | | | |  |  | | |
  / / / /  /  / / /   / / / /  /  / / /

  Q   Q   +E  E E E   Q   E E +E  E Q
|-2---2---(2)-------|-2-----------------|
|-3---3---(3)-3-----|-------------3-----|
|---------------2---|-------2-(2)---2---|
|-----------------0-|-----0-------------|
|-------------------|-------------------|
|-------------------|-------------------|


                            D.S. al Coda
  Em                  A7      D7
  E E E E E E  E  E   E E E E  E  E E E
  | | | | | |  |  |   | | | |  |  | | |
  / / / / / /  /  /   / / / /  /  / / /

  Q   Q   E E +E  E   Q   E E +E  E Q
|-----0-------------|--------------------||
|---------0-3-(3)---|-2-----3-(3)--------||
|-----------------4-|-------------2------||
|-------------------|---------------0----||
|-------------------|-----0--------------||
|-0-----------------|--------------------||


 Outro
  &
  G
  W          +W           +W
  |           |            |
  /           /            /

  W          +W           +W
|-3--------|-(3)--------|-(3)----*|
|-3--------|-(3)--------|-(3)----*|
|-4--------|-(4)--------|-(4)----*|
|-5--------|-(5)--------|-(5)----*|
|----------|------------|--------*|
|----------|------------|--------*|

            
Submit corrections


        Ill Cry Instead  lessons Hard to play? Try these video lessons and learn fast Ill Cry Instead  lessons
        
↑ Back to top | Tablatures and chords for acoustic guitar and electric guitar, ukulele, drums are parodies/interpretations of the original songs. You may use it for private study, scholarship, research or language learning purposes only