» » »

Beatles - Ill Be Back Tabs

Artists:  A B C D E F G H I J K L M N O P Q R S T U V W X Y Z # 

Ill Be Back Tabs

(ver. 1) Click to play this song!
Beatles
 Rating:
4/5 (4 votes)

 Ill Be Back  lessons Tabs too difficult? Try these video lessons and learn fast
 
                           A                   Am                    G                  Fmaj7
      x 0 2 2 2 0          x 0 2 2 1 0          3 2 0 0 0 3          x x 3 2 1 0

           E                    D                   Bm                   C#m
      0 2 2 1 0 0          x x 0 2 3 2          x 2 4 4 3 2          x 4 6 6 5 4

          F#m                  B7
      2 4 4 2 2 2          x 2 1 2 0 2



Gtr I (E A D G B E) - 'George Harrison - Electric Guitar'
Gtr II (E A D G B E) - 'John Lennon - Acoustic Guitar'


 Intro                                              1st - 4th Verses
  Q=120
                                                 $
             A                                       Am
 4/4
  Gtr II (Ac. Gtr.)
  H    Q   E E   +Q   Q  E E E E   Q  Q  E E E E      Q   Q  E E E E
             |    |   |  | | | |   |  |  | | | |      |   |  | | | |
             /    /   /  / / / /   /  /  / / / /      /   /  / / / /

  Gtr I (El. Gtr.)
  H    E E E E   +W                H     E E E E     +W
|----------0---|-----------------|-----------0-0-||--(0)-------------|
|------------2-|-(2)-------------|-------------1-||o-(1)-------------|
|--------4-----|-----------------|---------4---2-||--(2)-------------|
|------4-------|-----------------|-------4-----2-||--(2)-------------|
|--------------|-----------------|-------------0-||o-(0)-------------|
|--------------|-----------------|---------------||------------------|


                                                               To Coda
  G               Fmaj7                 E               A
  Q  Q  E E E E   Q   Q   E E   E   E   Q  Q  E E E E   Q  Q  E E E E
  |  |  | | | |   |   |   | |   |   |   |  |  | | | |   |  |  | | | |
  /  /  / / / /   /   /   / /   /   /   /  /  / / / /   /  /  / / / /

                  |--3--| |---3---|
  W               Q Q   Q Q   Q   Q     W               H     E E E E
|-3-------------|-0-0---0-0---0---0---|-0-------------|-0---------0----||
|-3-------------|-1-1---1-1---1---1---|-0-------------|-2-----------2--||
|-4-------------|-2-2---2-2---2---2---|-1-------------|-2-------4------||
|-5-------------|-3-3---3-3---3---3---|-2-------------|-2-----4--------||
|-5-------------|---------------------|-2-------------|-0--------------||
|-3-------------|---------------------|-0-------------|----------------||


  A                 Am              G               Fmaj7
   Q   Q  E E E E   Q  Q  E E E E   Q  Q  E E E E   Q   Q   E E   E   E
   |   |  | | | |   |  |  | | | |   |  |  | | | |   |   |   | |   |   |
   /   /  / / / /   /  /  / / / /   /  /  / / / /   /   /   / /   /   /

                                                    |--3--| |---3---|
  +W                W               W               Q Q   Q Q   Q   Q
|-----------------|-0-------------|-3-------------|-0-0---0-0---0---0----|
|-(2)-------------|-1-------------|-3-------------|-1-1---1-1---1---1----|
|-----------------|-2-------------|-4-------------|-2-2---2-2---2---2----|
|-----------------|-2-------------|-5-------------|-3-3---3-3---3---3----|
|-----------------|-0-------------|-5-------------|----------------------|
|-----------------|---------------|-3-------------|----------------------|


                                  1.
  E               A                                   F#m
  Q  Q  E E E E   Q  Q  E E E E     Q   Q  E E E E    Q  Q  E E E E
  |  |  | | | |   |  |  | | | |     |   |  | | | |    |  |  | | | |
  /  /  / / / /   /  /  / / / /     /   /  / / / /    /  /  / / / /

  W               H     E E E E    +W                 W
|-0-------------|-0---------0---||-----------------||-2--------------|
|-0-------------|-2-----------2-||-(2)-------------||-2--------------|
|-1-------------|-2-------4-----||-----------------||-2--------------|
|-2-------------|-2-----4-------||-----------------||-4--------------|
|-2-------------|-0-------------||-----------------||-4--------------|
|-0-------------|---------------||-----------------||-2--------------|


                  Bm                              E     D
  Q  Q  E E E E   Q  Q  E E E E   Q  Q  E E E E   Q  Q  E E E E
  |  |  | | | |   |  |  | | | |   |  |  | | | |   |  |  | | | |
  /  /  / / / /   /  /  / / / /   /  /  / / / /   /  /  / / / /

  W               W               W               H     E E E E
|-2-------------|-2-------------|-2-------------|-0--------------|
|-2-------------|-3-------------|-3-------------|-0--------------|
|-2-------------|-4-------------|-4-------------|-1--------------|
|-4-------------|-4-------------|-4-------------|-2-----0-----2--|
|-4-------------|-2-------------|-2-------------|-2-------4-2----|
|-2-------------|---------------|---------------|-0--------------|


                                 2.
  E       D             E         A
                   2/4           4/4
  E E E E E E E E   +E  E E E      Q   Q  E E E E
  | | | | | | | |    |  | | |      |   |  | | | |
  / / / / / / / /    /  / / /      /   /  / / / /

  H       E E E E   +H             W
|-----------------|------------||-----------------||
|-----------------|-----------o||-(2)-------------||
|-----------------|------------||-----------------||
|-2-------0-----2-|-(2)--------||-----------------||
|-----------4-2---|-----------o||-----------------||
|-----------------|------------||-----------------||


 Bridge
  Bm                                  C#m
  Q  Q  E E E E    Q   Q   E  E E E    Q  Q  E E E E
  |  |  | | | |    |   |   |  | | |    |  |  | | | |
  /  /  / / / /    /   /   /  / / /    /  /  / / / /

  Q  H      Q     +Q   Q  +H           W
|---------------|-------------------|-^4--------------|
|---------------|-------------------|-^5--------------|
|----4------3---|-(3)--2--(2)-------|-^6--------------|
|---------------|-------------------|-^6--------------|
|---------------|-------------------|-^4--------------|
|---------------|-------------------|-----------------|


  C#m                 F#m              B7              D
   Q    Q   E E E E    Q  Q  E E E E    Q  Q  E E Q     Q  Q  E E E E
   |    |   | | | |    |  |  | | |      |  |  | | |     |  |  | | | |
   /    /   / / / /    /  /  / / /      /  /  / / /     /  /  / / / /

  +Q    H.             W                W               W
|-(4)--^4-----------|-^2-------------|-^2------------|-^2--------------|
|-(5)--^5-----------|-^2-------------|-^0------------|-^3--------------|
|-(6)--^6-----------|-^2-------------|-^2------------|-^2--------------|
|-(6)--^6-----------|-^4-------------|-^1------------|-^0--------------|
|-(4)--^4-----------|-^4-------------|-^2------------|-----------------|
|-------------------|-^2-------------|---------------|-----------------|


                                    D.S. al Coda
  E     D         E         D         E
                                     2/4
  Q  Q  E E E E   +E  E E E E E E E   +E  E E E
  |  |  | | | |    |  | | | | | | |    |  | | |
  /  /  / / / /    /  / / / / / / /    /  / / /

  H     E E E E   +H        E E E E   +H
|-0-------------|-------------------|------------||
|-0-------------|-------------------|------------||
|-1-------------|-------------------|------------||
|-2-----0-----2-|-(2)-------0-----2-|-(2)--------||
|-2-------4-2---|-------------4-2---|------------||
|-0-------------|-------------------|------------||


 Outro
  &
  A                             Am
 4/4
   Q   Q  E E E E   Q  Q  E E E E   +Q   Q  E E E E
   |   |  | | | |   |  |  | | | |    |   |  | | | |
   /   /  / / / /   /  /  / / / /    /   /  / / / /

  +W                H     E E E E   +H      E E E E
|-----------------|-----------0-0-|-(0)-------0---0-|
|-(2)-------------|-------------1-|-(1)-------1---1-|
|-----------------|---------4---2-|-(2)-------2---2-|
|-----------------|-------4-----2-|-(2)-------2---2-|
|-----------------|-------------0-|-(0)-------0---0-|
|-----------------|---------------|-----------------|


  Am              A                               Am
  Q  Q  E E E E    Q   Q  E E E E   +Q   Q  E E E E    Q   Q  E E E E
  |  |  | | | |    |   |  | | | |    |   |  | | | |    |   |  | | | |
  /  /  / / / /    /   /  / / / /    /   /  / / / /    /   /  / / / /

  H     E E E E   +H      E E E E   +H      E E E E   +H      E E E E
|-0---------0---|-----------0---0-|-(0)---------0-0-|-(0)-------0---0--*|
|-1-----------2-|-(2)-------2---2-|-(2)-----------1-|-(1)-------1---1--*|
|-2-------4-----|-----------2---2-|-(2)-------4---2-|-(2)-------2---2--*|
|-2-----4-------|-----------2---2-|-(2)-----4-----2-|-(2)-------2---2--*|
|-0-------------|-----------0---0-|-(0)-----------0-|-(0)-------0---0--*|
|---------------|-----------------|-----------------|------------------*|
            
Submit corrections


        Ill Be Back  lessons Hard to play? Try these video lessons and learn fast Ill Be Back  lessons
        
↑ Back to top | Tablatures and chords for acoustic guitar and electric guitar, ukulele, drums are parodies/interpretations of the original songs. You may use it for private study, scholarship, research or language learning purposes only