Home » B » Beatles »

Beatles - Honey Dont Tabs

Artists:  A B C D E F G H I J K L M N O P Q R S T U V W X Y Z # 

Honey Dont Tabs
Version #1
Beatles


Copy URL
          E                    C                   B7                   A7
      0 2 2 1 0 0          x 3 2 0 1 0          x 2 1 2 0 2          x 0 2 2 2 3



Gtr I (E A D G B E) - 'John Lennon - Acoustic Guitar'
Gtr II (E A D G B E) - 'George Harrison - Electric Guitar '


 Intro
  Q=184(8=s8)
  N.C.
 4/4
  Gtr II (El. Gtr.)
  Q  E E +E  E Q    Q  E E +E  E Q    Q  E E +E  E a Q
|----0-------0----|----0-------0----|----0-------0------||
|----0-------0----|----0-------0----|----0-------0------||
|-4----4-(4)---4--|-3----3-(3)---3--|-2----2-(2)---2p0--||
|-----------------|-----------------|-------------------||
|-----------------|-----------------|-------------------||
|-----------------|-----------------|-------------------||


                                  1st - 3rd Verses
                               $
  E                                E
  Gtr I (Ac. Gtr.)
  Q  Q   E E Q    Q  Q  E E Q      W          +H     +E  E Q
  |  |   | | |    |  |  | | |      |           |      |  | |
  /  /   / / /    /  /  / / /      /           /      /  / /

  Gtr II
  Q  H.           W                W          +H     +E  E Q
|----0----------|-0------------||--0--------|-(0)----(0)-0-0---|
|----0----------|-0------------||o-0--------|-(0)----(0)-0-0---|
|---------------|--------------||--1--------|-(1)----(1)-1-1---|
|---------------|--------------||--2--------|-(2)----(2)-2-2---|
|---------------|--------------||o-2--------|-(2)----(2)-2-2---|
|---------------|--------------||--0--------|-(0)----(0)-0-0---|


  C                            E
  W          +H     +E  E Q    W          +H     +E  E Q
  |           |      |  | |    |           |      |  | |
  /           /      /  / /    /           /      /  / /

  W          +H     +E  E Q    W          +H     +E  E Q
|-0--------|-(0)----(0)-0-0--|-0--------|-(0)----(0)-0-0---|
|-1--------|-(1)----(1)-1-1--|-0--------|-(0)----(0)-0-0---|
|-0--------|-(0)----(0)-0-0--|-1--------|-(1)----(1)-1-1---|
|-2--------|-(2)----(2)-2-2--|-2--------|-(2)----(2)-2-2---|
|-3--------|-(3)----(3)-3-3--|-2--------|-(2)----(2)-2-2---|
|----------|-----------------|-0--------|-(0)----(0)-0-0---|


  C                            B7
  W          +H     +E  E Q    Q  Q   E E Q    Q   Q    E  E Q
  |           |      |  | |    |  |   | | |    |   |    |  | |
  /           /      /  / /    /  /   / / /    /   /    /  / /

  W          +H     +E  E Q    Q  E E E E Q    E E E E +Q    Q
|-0--------|-(0)----(0)-0-0--|----2-----2----|-2-----2-(2)-------|
|-1--------|-(1)----(1)-1-1--|----0-----0----|-0-----0-(0)-------|
|-0--------|-(0)----(0)-0-0--|----2-----2----|-2-----2-(2)-------|
|-2--------|-(2)----(2)-2-2--|----1-----1----|-1-----1-(1)-------|
|-3--------|-(3)----(3)-3-3--|----2-----2----|-2-----2-(2)-------|
|----------|-----------------|---------------|-------------------|


                                     Chorus
  E
  Q   H      Q     +Q   H      Q      +Q   H      Q    +Q   H       Q
  |   |      |      |   |      |       |   |      |     |   |       |
  /   /      /      /   /      /       /   /      /     /   /       /

  E E Q  E E E E    E E Q  E E E E     E E Q  E E Q     E E E E E E E E
|----------------|-----------------||----------------|-------------------|
|----------------|-----------------||----------------|-------------------|
|----------------|-----------------||----------------|-------------------|
|----------------|--2-2------2---2-||-----------2----|--0-2---2---2---2--|
|---2----2-2-4-4-|------4--2-------||----2----2---4--|------4---2--------|
|-0---4----------|-------------4---||--0---4---------|--------------4----|


  E                                  A7
  Q   Q  E E E E   Q   Q   E E Q     Q   Q  E E Q     Q   Q  E E Q
  |   |  | | | |   |   |   | | |     |   |  | | |     |   |  | | |
  /   /  / / / /   /   /   / / /     /   /  / / /     /   /  / / /

  E E Q  E E Q     E E E E E E E E   E E Q  E E E E   E E Q  E E E E
|----------------|-----------------|----------------|-----------------|
|----------------|-----------------|----------------|-----------------|
|----------------|-----------------|---2----2-2-----|--------2-2---2--|
|----------2-----|-0-2---2---2---2-|---2----2-2-4-4-|-5-5-4--2-2---2--|
|---2----2---4---|-----4---2-------|-0---4----------|------------4----|
|-0---4----------|-------------4---|----------------|-----------------|


  E                                B7
  Q   Q  E E Q     Q   Q  E E Q    Q  Q   E E Q    Q  Q  E E Q
  |   |  | | |     |   |  | | |    |  |   | | |    |  |  | | |
  /   /  / / /     /   /  / / /    /  /   / / /    /  /  / / /

  E E Q  E E E E   E E Q  E E Q    Q  E E Q   Q    Q  Q  E E Q
|----------------|---------------|---------------|---------------|
|----------------|---------------|---------------|---------------|
|----------------|---------------|---------------|---------------|
|----------2---2-|-0-0----2-2----|---------------|---------------|
|---2----2---4---|-----4--2-2----|-2--2-2--------|-2--0----------|
|-0---4----------|------------4--|--------2---2--|-------4-4-2---|


                                      Guitar Solo 1
                          To Coda
  E                                    E
  Q   Q  E E Q     Q   Q   E E Q       Q    Q   E E Q
  |   |  | | |     |   |   | | |       |    |   | | |
  /   /  / / /     /   /   / / /       /    /   / / /

  E E Q  E E E E   E E E E E E E E     E  E Q   E E E  E
|----------------|------------------||---12----12-----12-|
|----------------|-----------------o||---12----12-----12-|
|----------------|------------------||---13----13-----13-|
|--------2-------|-2-----2---2---2--||-------------------|
|---2----2---4-2-|---2-4-----------o||-------------------|
|-0---4----------|-------------4----||-------------------|


  E                        C
  Q    Q      E   E Q      Q   Q   E E Q      Q    Q      E   E Q
  |    |      |   | |      |   |   | | |      |    |      |   | |
  /    /      /   / /      /   /   / / /      /    /      /   / /

  E  E E  E  +E   E E  E   E E E E E E E  E   E  E E  E  +E   E Q
|---12---12-(12)-12---12-|-8---8---8-----12-|---12---12-(12)-12----|
|---12---12-(12)-12---12-|-8---8---8-----13-|---13---13-(13)-13----|
|---13---13-(13)-13---13-|------------------|----------------------|
|------------------------|------------------|----------------------|
|------------------------|------------------|----------------------|
|------------------------|------------------|----------------------|


  E                                          C
  Q   Q  E E Q      Q    Q      E   E Q      Q   Q  E E Q
  |   |  | | |      |    |      |   | |      |   |  | | |
  /   /  / / /      /    /      /   / /      /   /  / / /

  E E Q  E E E  E   E  E E  E  +E   E E  E   E E H      E E
|---7----7-----12-|---12---12-(12)-12---12-|-8---8----------|
|---9----9-----12-|---12---12-(12)-12---12-|-8---8----------|
|--------------13-|---13---13-(13)-13---13-|-9---9----------|
|-----------------|------------------------|----------------|
|-----------------|------------------------|--------------1-|
|-----------------|------------------------|----------------|


                    Bridge
  B7                 E
  E E E E E E E E    E E Q  E E Q      E  E Q  E E Q      E  E Q  E E Q
  | | | | | | | |    | | |  | | |      |  | |  | | |      |  | |  | | |
  / / / / / / / /    / / /  / / /      /  / /  / / /      /  / /  / / /

  E E Q   E E Q      E E Q  E E E E   +E  E Q  E E E E   +E  E Q  E E E E
|-----------------||----------------|------------------|-------------------|
|-----------------||----------------|------------------|-------------------|
|-----------------||----------------|------------------|-------------------|
|-----------------||----------------|------------------|-------------------|
|-2-2-0-----------||---2------2-----|-----2------2-----|-----2------2------|
|---------4-4-2---||-0---4--4-----0-|-(0)---4--4-----0-|-(0)---4--4-----0--|


  E                   A7                                    E
   E  E E E E E E E    E  E Q  E E Q      E  E Q  E E Q      E  E Q  E E Q
   |  | | | | | | |    |  | |  | | |      |  | |  | | |      |  | |  | | |
   /  / / / / / / /    /  / /  / / /      /  / /  / / /      /  / /  / / /

  +E  E Q   E E E E   +E  E Q  E E E E   +E  E Q  E E E E   +E  E Q  E E E E
|-------------------|------------------|------------------|-------------------|
|-------------------|------------------|------------------|-------------------|
|-------------------|------------------|------------------|-------------------|
|-------------------|-----2------2-----|-----2------2-----|-------------------|
|-----2-------2---0-|-(0)---4--4-----0-|-(0)---4--4-------|-----2------2------|
|-(0)---4---4-------|------------------|----------------0-|-(0)---4--4-----0--|


  E                  B7                                    E
   E  E Q  E E Q      E  E E E E E E E   E E E E E E E E   E E Q  E E Q
   |  | |  | | |      |  | | | | | | |   | | | | | | | |   | | |  | | |
   /  / /  / / /      /  / / / / / / /   / / / / / / / /   / / /  / / /

  +E  E Q  E E E E   +Q    Q   E E Q     Q   E E E E E E   E E Q  E E E E
|------------------|-------------------|-----------------|-----------------|
|------------------|-------------------|-----------------|-----------------|
|------------------|-------------------|-----------------|-----------------|
|------------------|-------------4-----|-----------2-----|-----------------|
|-----2------2---2-|-(2)---2-------2---|-2---2-2-4---4-2-|---2----2-----2--|
|-(0)---4--4-------|-----------2-------|-----------------|-0---4-----------|


                     Guitar Solo 2
      D.S. al Coda &
  E                   E
  E E Q   E E Q       E  E Q   E E Q      E  E Q      E   E  Q
  | | |   | | |       |  | |   | | |      |  | |      |   |  |
  / / /   / / /       /  / /   / / /      /  / /      /   /  /

  E E E E E E E E     E  E Q   E E E  E   E  E E  E  +E   E  E E
|------------------||---12----12-----12-|---12---12-(12)-12-12---|
|------------------||---12----12-----12-|---12---12-(12)-12-12---|
|------------------||---13----13-----13-|---13---13-(13)-13-13---|
|-2-----2---2-2-2--||-------------------|------------------------|
|---2--------------||-------------------|------------------------|
|------------------||-------------------|------------------------|


  C                                    E
  E E Q  E E Q     E E Q    E  E Q     E  E Q   E E Q
  | | |  | | |     | | |    |  | |     |  | |   | | |
  / / /  / / /     / / /    /  / /     /  / /   / / /

  E E Q  E E E E   E E E E +E  E E E   E  E Q   E E E  E
|---8----8-----8-|---8---8-(8)-8-8-8-|---12----12-----12-|
|---8----8-----8-|---8---8-(8)-8-8-8-|---12----12-----12-|
|---9----9-----9-|---9---9-(9)-9-9-9-|---13----13-----13-|
|----------------|-------------------|-------------------|
|----------------|-------------------|-------------------|
|----------------|-------------------|-------------------|


  E                         C
  E  E Q      E   E  Q       E E  Q  E E Q
  |  | |      |   |  |       | |  |  | | |
  /  / /      /   /  /       / /  /  / / /

  E  E E  E  +E   E  E  E    E E  H      E E
|---12---12-(12)-12-12-12-|-12---12----------||
|---12---12-(12)-12-12-12-|-13---13----------||
|---13---13-(13)-13-13-13-|-12---12----------||
|-------------------------|------------------||
|-------------------------|----------------2-||
|-------------------------|------------------||


 Outro
  B7                  E
   E  E E E E E E E   E E Q  E E Q
   |  | | | | | | |   | | |  | | |
   /  / / / / / / /   / / /  / / /

  +E  E Q   Q   Q     E E Q  Q   E E
|-------------------|-----------------|
|-------------------|-----------------|
|-------------------|-----------------|
|-------------------|-----------------|
|-(2)-2-0-----------|---2----2-----2--|
|-----------4---2---|-0---4------4----|


  E                                                   A7
  E E Q  E E Q     E E Q  E E Q     E E E E E E E E   E E Q  E E E E
  | | |  | | |     | | |  | | |     | | | | | | | |   | | |  | | | |
  / / /  / / /     / / /  / / /     / / / / / / / /   / / /  / / / /

  E E Q  Q   E E   E E Q  Q   E E   E E Q   Q   E E   E E Q  E E E E
|----------------|----------------|-----------------|-----------------|
|----------------|----------------|-----------------|-----------------|
|----------------|----------------|-----------------|-----------------|
|----------------|----------------|-----------------|---2----2-2-2-2--|
|---2----2-----2-|---2----2-----2-|---2-----2-----2-|-0---4-----------|
|-0---4------4---|-0---4------4---|-0---4-------4---|-----------------|


  A7               E                                  B7
  E E Q  E E E E   E E Q  Q   E E   E E E E E E E E   E E Q  E E Q
  | | |  | | | |   | | |  |   | |   | | | | | | | |   | | |  | | |
  / / /  / / / /   / / /  /   / /   / / / / / / / /   / / /  / / /

  Q   Q  E E Q     E E Q  E E E E   E E E E E E Q     Q   Q  Q   Q
|----------------|----------------|-----------------|----------------|
|----------------|----------------|-----------------|----------------|
|-0--------------|----------------|-----------------|----------------|
|-----4--2-2-----|----------------|-2-2-------------|----------------|
|------------4---|---2----2-2-4-4-|-----4-4-2-2-----|-2---0------0---|
|----------------|-0---4----------|-------------4---|--------2-------|


  B7              E
  E E Q  E E Q    Q   Q   E E Q    Q   E E +Q  Q    +W
  | | |  | | |    |   |   | | |    |   | |  |  |     |
  / / /  / / /    /   /   / / /    /   / /  /  /     /

  Q   Q  Q   Q    E Q   E Q   Q    E E E E  Q  Q    +W
|---------------|-------0-0---0--|----------------|--------*|
|---------------|-------0-0---0--|-0--------------|--------*|
|---------------|---4-----3---2--|-1--------------|--------*|
|---------------|----------------|---2---2-----2--|-(2)----*|
|-2---0---------|----------------|-----2----------|--------*|
|--------4---2--|-0--------------|----------------|--------*|

            
Submit corrections

↑ Back to top | Tablatures and chords for acoustic guitar and electric guitar, ukulele, drums are parodies/interpretations of the original songs. You may use it for private study, scholarship, research or language learning purposes only