Home » B » Beatles »

Beatles - Christmas Time Is Here Again Tabs

Artists:  A B C D E F G H I J K L M N O P Q R S T U V W X Y Z # 

Christmas Time Is Here Again Tabs

(ver. 1) Click to play this song!
Beatles
[Verse 1] Acoustic Guitar #1
 
Ringo Leads in W/ Drum Beat
 
                         D    D5    D     D5    D    D5      Dmaj7sus2
d|-----------------------4----0-----4-----0-----4----0--0---------2------------|
B|-----------------------3-------3-----3-----3--3----3--3-------2--------------|
G|-----------------------2----------------------2-------------2----------------|
D|-----------------------0----0-----0-----0-----0----0--0----------------------|
A|-----------------------0----------------------0------------------------------|
D|-----------------------0----------------------0------------------------------|
                         Christmas  time  is   here  a - gain
                         Christmas  time  is   here  a - gain
 
 
                        G/D  G5/D  G/D         G/D   G5/D     G/D
d|-----------------------9----------9-----------9--------------9---------------|
B|-----------------------8----8-----8-----8-----8-----8--8-------8-------------|
G|-----------------------7----7--7----------7---7-----7--7---------7-----------|
D|-----------------------0----------0-----------0------------------------------|
A|-----------------------0----------------------0------------------------------|
D|-----------------------0----0-----------------0-----0--0---------------------|
                         Christmas  time  is   here   a - gain
 
 
                         D    D5    D     D5    D    D5
d|-----------------------4----0-----4-----0-----4----0--0----------------------|
B|-----------------------3-------3-----3-----3--3----3--3----------------------|
G|-----------------------2----------------------2------------------------------|
D|-----------------------0----0-----0-----0-----0----0--0----------------------|
A|-----------------------0----------------------0------------------------------|
D|-----------------------0----------------------0------------------------------|
                         Christmas  time  is   here  a - gain 
 
=================================================================================
 
   [Chorus 1] Acoustic Guitar #1
 
                         Em7                     A
d|-----------------------0-----------------0---------------7----7--------------|
B|-----------------------8-------------8----------------5-------5--------------|
G|-----------------------9----------9----------------6----------6--------------|
D|-----------------------9------9-----------------7-------------7--------------|
A|-----------------------7-----------------------------------------------------|
D|-----------------------------------------------------------------------------|
                         Ain't been a round since you know when
 
 
                         D    D5    D     D5    D    D5
d|-----------------------4----0-----4-----0-----4----0--0----------------------|
B|-----------------------3-------3-----3-----3--3----3--3----------------------|
G|-----------------------2----------------------2------------------------------|
D|-----------------------0----0-----0-----0-----0----0--0----------------------|
A|-----------------------0----------------------0------------------------------|
D|-----------------------0----------------------0------------------------------|
                         Christmas  time  is   here  a - gain      
 
=================================================================================
 
[Weird Interlude] Acoustic Guitar #1
 
                          D  D5 D  D5
d|------------------------4--0--4--0-------------------------------------------|
B|------------------------3--3--3--3-------------------------------------------|
G|------------------------2--2--2--2----------------------6-p-4----------------|
D|------------------------0--0--0--0--------2--------------------5--5-/-7------|
A|------------------------0--------------------4--0-h-2------------------------|
D|------------------------0----------------------------------------------------|
                          O  U  T  spells "Out"
 
=================================================================================
 
 
[Verse 2] Acoustic Guitar #1
 
                         D    D5    D     D5    D    D5      Dmaj7sus2
d|-----------------------4----0-----4-----0-----4----0--0---------2------------|
B|-----------------------3-------3-----3-----3--3----3--3-------2--------------|
G|-----------------------2----------------------2-------------2----------------|
D|-----------------------0----0-----0-----0-----0----0--0----------------------|
A|-----------------------0----------------------0------------------------------|
D|-----------------------0----------------------0------------------------------|
                         Christmas  time  is   here  a - gain
                         Christmas  time  is   here  a - gain
 
 
 
                        G/D  G5/D  G/D         G/D   G5/D     G/D
d|-----------------------9----------9-----------9--------------9---------------|
B|-----------------------8----8-----8-----8-----8-----8--8-------8-------------|
G|-----------------------7----7--7----------7---7-----7--7---------7-----------|
D|-----------------------0----------0-----------0------------------------------|
A|-----------------------0----------------------0------------------------------|
D|-----------------------0----0-----------------0-----0--0---------------------|
                         Christmas  time  is   here   a - gain
 
 
 
                         D    D5    D     D5    D    D5
d|-----------------------4----0-----4-----0-----4----0--0----------------------|
B|-----------------------3-------3-----3-----3--3----3--3----------------------|
G|-----------------------2----------------------2------------------------------|
D|-----------------------0----0-----0-----0-----0----0--0----------------------|
A|-----------------------0----------------------0------------------------------|
D|-----------------------0----------------------0------------------------------|
                         Christmas  time  is   here  a - gain  
 
=================================================================================
 
   [Chorus 2] Acoustic Guitar #1
 
d|-----------------------0-----------------0---------------7----7--------------|
B|-----------------------8-------------8----------------5-------5--------------|
G|-----------------------9----------9----------------6----------6--------------|
D|-----------------------9------9-----------------7-------------7--------------|
A|-----------------------7-----------------------------------------------------|
D|-----------------------------------------------------------------------------|
                         Ain't been a round since you know when
 
 
                         D    D5    D     D5    D    D5
d|-----------------------4----0-----4-----0-----4----0--0----------------------|
B|-----------------------3-------3-----3-----3--3----3--3----------------------|
G|-----------------------2----------------------2------------------------------|
D|-----------------------0----0-----0-----0-----0----0--0----------------------|
A|-----------------------0----------------------0------------------------------|
D|-----------------------0----------------------0------------------------------|
                         Christmas  time  is   here  a - gain      
 
=================================================================================
 
[Weird Interlude 2]
 
d|------------------------4--0--4--0-------------------------------------------|
B|------------------------3--3--3--3-------------------------------------------|
G|------------------------2--2--2--2----------------------6-p-4----------------|
D|------------------------0--0--0--0--------2--------------------5--5-/-7------|
A|------------------------0--------------------4--0-h-2------------------------|
D|------------------------0----------------------------------------------------|
                          O  U  T  spells "Out"
 
=================================================================================
 
[Verse 3]
 
                         D    D5    D     D5    D    D5      Dmaj7sus2
d|-----------------------4----0-----4-----0-----4----0--0---------2------------|
B|-----------------------3-------3-----3-----3--3----3--3-------2--------------|
G|-----------------------2----------------------2-------------2----------------|
D|-----------------------0----0-----0-----0-----0----0--0----------------------|
A|-----------------------0----------------------0------------------------------|
D|-----------------------0----------------------0------------------------------|
                         Christmas  time  is   here  a - gain
                         Christmas  time  is   here  a - gain
 
 
 
                        G/D  G5/D  G/D         G/D   G5/D     G/D
d|-----------------------9----------9-----------9--------------9---------------|
B|-----------------------8----8-----8-----8-----8-----8--8-------8-------------|
G|-----------------------7----7--7----------7---7-----7--7---------7-----------|
D|-----------------------0----------0-----------0------------------------------|
A|-----------------------0----------------------0------------------------------|
D|-----------------------0----0-----------------0-----0--0---------------------|
                         Christmas  time  is   here   a - gain
 
 
 
                         D    D5    D     D5    D    D5      Dmaj7sus2
d|-----------------------4----0-----4-----0-----4----0--0----------------------|
B|-----------------------3-------3-----3-----3--3----3--3----------8-----------|
G|-----------------------2----------------------2----------------9-------------|
D|-----------------------0----0-----0-----0-----0----0--0-----10---------------|
A|-----------------------0----------------------0------------------------------|
D|-----------------------0----------------------0------------------------------|
                         Christmas  time  is   here  a - gain 
 
=================================================================================
 
 
   [Chorus 3] Acoustic Guitar #1
                        Em7                     A
d|-----------------------0-----------------0---------------7----7--------------|
B|-----------------------8-------------8----------------5-------5--------------|
G|-----------------------9----------9----------------6----------6--------------|
D|-----------------------9------9-----------------7-------------7--------------|
A|-----------------------7-----------------------------------------------------|
D|-----------------------------------------------------------------------------|
                         Ain't been a round since you know when
 
 
                         D    D5    D     D5    D    D5
d|-----------------------4----0-----4-----0-----4----0--0----------------------|
B|-----------------------3-------3-----3-----3--3----3--3----------------------|
G|-----------------------2----------------------2------------------------------|
D|-----------------------0----0-----0-----0-----0----0--0----------------------|
A|-----------------------0----------------------0------------------------------|
D|-----------------------0----------------------0------------------------------|
                         Christmas  time  is   here  a - gain
 
...........But if you want you can just keep Going and Going and............
            
Submit corrections

↑ Back to top | Tablatures and chords for acoustic guitar and electric guitar, ukulele, drums are parodies/interpretations of the original songs. You may use it for private study, scholarship, research or language learning purposes only