Home » B » Beatles »

Beatles - And I Love Her Bass

Artists:  A B C D E F G H I J K L M N O P Q R S T U V W X Y Z # 

And I Love Her Bass

(ver. 1) Click to play this song!
Beatles
[Intro] (0:01)
G|-------------------------------|
D|4--4-4--4--4-4--2--2-2--2--2-2-|
A|-------------------------------|
E|-------------------------------|
 
 
[Verse 1] (0:09)
G|----------------------------------------------------------------4~------4~----|
D|4--4-4----------4--4-4----------4--4-4---------------2---1~-4-2-----1-2----2PM|
A|--------4--4-4----------4--4-4----------4--4-4-----4---2----------2-----------|
E|------------------------------------------------5~----------------------------|
 
[Verse 2] (0:29)
G|----------------------------------------------------------------4~------4~-------|
D|4--4-4----------4--4-4----------4--4-4---------------2---1~-4-2-----1-2------2-1-|
A|--------4--4-4----------4--4-4----------4--4-4-----4---2----------2--------2-----|
E|------------------------------------------------5~-------------------------------|
 
G|--------------------------------------------------------|
D|--------------------------------------------------------|
A|4-4~-4-2-2~-2-4-4~-4--------4-4~-4--------2-2~-2-2-2~-2-|
E|---------------------4-4~-4--------4-4~-4---------------|
 
[Verse 3] (1:06)
G|----------------------------------------------------------------4~------4~----|
D|4--4-4----------4--4-4----------4--4-4---------------2---1~-4-2-----1-2----2PM|
A|--------4--4-4----------4--4-4----------4--4-4-----4---2----------2-----------|
E|------------------------------------------------5~----------------------------|
 
[Bridge] (1:27)
G|---------------------------------------------------------0-0-------5~-------5~-----|
D|5--5-5----------5--5-5----------5--5-5---------------3---------2-3------2-3----5-3-|
A|--------5--5-5----------5--5-5----------5--5-5--1-5~---3-----3--------3------------|
E|-----------------------------------------------------------------------------------|
 
[Verse 4] (1:49)
G|----------------------------------------------------------------5~-------5~-----|
D|5--5-5----------5--5-5----------5--5-5---------------3---2~-5-3------2-3----3-3-|
A|--------5--5-5----------5--5-5----------5--5-5--1-5~---3-----------3------------|
E|--------------------------------------------------------------------------------|
 
[Outro] (2:10)
G|--------------------------------------------------------|
D|5--5-5--5--5-5--3--3-3--3--3-3--5--5-5--5--5-5----------|
A|-----------------------------------------------5~~~~~~~-|
E|--------------------------------------------------------|
            
Submit corrections

↑ Back to top | Tablatures and chords for acoustic guitar and electric guitar, ukulele, drums are parodies/interpretations of the original songs. You may use it for private study, scholarship, research or language learning purposes only