» » »

Bear Mccreary - Dear Carl Tabs

Artists:  A B C D E F G H I J K L M N O P Q R S T U V W X Y Z # 

Dear Carl Tabs

(ver. 1) Click to play this song!
Bear Mccreary
 Rating:
4.4/5 (7 votes)

 Dear Carl lessons Tabs too difficult? Try these video lessons and learn fast
 
                [Intro]

e|-----|----------------------------------------------------------------------------------------------|
B|-0---|-0/3--1--8/5/3---------0--0/3--1--8/7--3/5--1----------0/5--3---1--3--------------------------|
G|-----|----------------2-2/4--------------------------2/4--2-----------------------------------------|
D|-----|----------------------------------------------------------------------2--2/5----5/7---5-------|
A|-----|----------------------------------------------------------------------------------------------|
E|-----|----------------------------------------------------------------------------------------------|

[Outro]

e|----|---------|-----------|-------------|-----------|------|----------------------------------------|
B|-0--|-1/3--1--|--0/8/7--3-|---------0/5-|-3--1-3----|------|----------------------------------------|
G|-0--|------0--|-----------|-2/4-2-------|---------4-|------|----------------------------------------|
D|-0--|------2--|-----------|-------------|-----------|-2/5--|--5/7--5--5\2--2/5----------------------|
A|-2--|------3--|-----------|-------------|-----------|------|----------------------------------------|
E|-3--|------3--|-----------|-------------|-----------|------|----------------------------------------|            
Submit corrections


        Dear Carl lessons Hard to play? Try these video lessons and learn fast Dear Carl lessons
        
↑ Back to top | Tablatures and chords for acoustic guitar and electric guitar, ukulele, drums are parodies/interpretations of the original songs. You may use it for private study, scholarship, research or language learning purposes only