Home » B » Bb Brunes »

Bb Brunes - Dis Moi Bass

Artists:  A B C D E F G H I J K L M N O P Q R S T U V W X Y Z # 

Dis Moi Bass

(ver. 1) Click to play this song!
Bb Brunes
-------------------------------------------------------------------------------
-------------------------------------------------------------------------------



Tuning: EADG

The Guitar plays 4 times before you start
"A toi et je pense qu'une part de vrai se cache..."

Verse : 

G|---------------------------------------------------------------------------|
D|---------------------------------------------------------------------------|
A|--9-9-0--------------------------------------------------------------------|
E|-------9-99-1010-12-9-99---------------------------------------------------|

Repeat it 3 times then :

G|---------------------------------------------------------------------------|
D|---------------------------------------------------------------------------|
A|---------------------------------------------------------------------------|
E|--7---9--------------------------------------------------------------------|


Then solo of bass :

G|---------------------------------------------------------------------------|
D|---------------------------------------------------------------------------|
A|--9-9-0--------------------------------------------------------------------|
E|-------9-9-12-12-7-7-------------------------------------------------------|

And now you just have to play several times Verse.

Enjoy !

| /  slide up
| \  slide down
| h  hammer-on
| p  pull-off
| ~  vibrato
| +  harmonic
| x  Mute note
===============================================================================
            
Submit corrections

↑ Back to top | Tablatures and chords for acoustic guitar and electric guitar, ukulele, drums are parodies/interpretations of the original songs. You may use it for private study, scholarship, research or language learning purposes only