Home » B » Baustelle »

Baustelle - Charlie Fa Surf Bass

Artists:  A B C D E F G H I J K L M N O P Q R S T U V W X Y Z # 

Charlie Fa Surf Bass

(ver. 1) Click to play this song!
Baustelle

INTRO (X2)(00.16):

G|---------------------------------------------------------------|
D|----8---8-----8----8------10---10-----10---10------------------|
A|--6----6--6-6----6---6--8-----8---8-8----8----8----------------|
E|---------------------------------------------------------------|

G|---------------------------------------------------------------|
D|--------------------------8---8-----8---8----------------------|
A|----8---8-----8----8----6----6--6-6---6---6--------------------|
E|--6----6--6-6----6---6-----------------------------------------|

G|---------------------------------------------------------------|
D|---------------------------------------------------------------|
A|---------------------------------------------------------------|
E|---------------------------------------------------------------|

VERSE(X2):

G|---------------------------------------------------------------|
D|---------------------------------------------------------------|
A|--6-6-6-6-6-6-6-6-6-6-6-6-6-6-6-6-8-8-8-8-8-8-8-8-8-8-8-8-8-8--|
E|---------------------------------------------------------------|

G|---------------------------------------------------------------|
D|---------------------------------------------------------------|
A|--8-8----------------------------------------------------------|
E|------6-6-6-6-6-6-6-6-6-6-6-6-6-6-6-6--------------------------|

PRE-CHORUS:

G|---------------------------------------------------------------|
D|---------------------------------------------------------------|
A|---------------------------------------------------------------|
E|--1-1-1-1-1-1-1-1-3-3-3-3-3-3-3-3-4-4-4-4-4-4-4-4-6-6-6-6-6-6--|

G|---------------------------------------------------------------|
D|---------------------------------------------------------------|
A|---------------------------------------------------------------|
E|-6-6--6-6-6-6-4-4-4-4-3-3-3-3-1-1-1-1--------------------------|

CHORUS:

G|---------------------------------------------------------------|
D|---------------------------------------------------------------|
A|--6-6-6-6-6-6-6-6-6-6-6-6-6-6-6-6-5-5-5-5-5-5-5-5--------------|
E|--------------------------------------------------6-6-6-6-6-6--|

G|---------------------------------------------------------------|
D|---------------------------------------------------------------|
A|-------------------------------------3-3-3-3-3-3-3-3-1-1-1-1-1-|
E|-6-6-1-1-1-1-1-1-1-1-1-1-1-1-1-1-1-1---------------------------|


G|---------------------------------------------------------------|
D|---------------------------------------------------------------|
A|--1-1-1--6-6-6-6-6-6-6-6-6-6-6-6-6-6-6-6-5-5-5-5-5-5-5-5-------|
E|---------------------------------------------------------6-6-6-|

G|---------------------------------------------------------------|
D|---------------------------------------------------------------|
A|--------------------------------------------3-3-3-3-3-3-3-3----|
E|--6-6-6-6-6-1-1-1-1-1-1-1-1-1-1-1-1-1-1-1-1--------------------|

G|---------------------------------------------------------------|
D|---------------------------------------------------------------|
A|--2-2-2-2-2-2-2-2-1-1-1-1-1-1-1-1-0-0-0-0-0-0-0-0-6-6-6-6-6-6--|
E|---------------------------------------------------------------|

G|---------------------------------------------------------------|
D|---------------------------------------------------------------|
A|--6-6-5-5-5-5-5-5-5-5-3-3-3-3-3-3-3-3-3-3-3-3-3-3-3-3-2-2-2-2--|
E|---------------------------------------------------------------|

G|---------------------------------------------------------------|
D|---------------------------------------------------------------|
A|--2-2-2-2-2-2-2-2-2-2-2-2--------------------------------------|
E|---------------------------------------------------------------|


INTRO(X2)

VERSE(X2)

PRE-CHORUS

CHORUS

OUTRO(=CHORUS)

-------------------------------END--------------------------------
            
Submit corrections

↑ Back to top | Tablatures and chords for acoustic guitar and electric guitar, ukulele, drums are parodies/interpretations of the original songs. You may use it for private study, scholarship, research or language learning purposes only