» » »

Battalion Of Saints - E/B Bass

Artists:  A B C D E F G H I J K L M N O P Q R S T U V W X Y Z # 

E/B Bass

(ver. 1) Click to play this song!
Battalion Of Saints
 Rating:
4/5 (4 votes)
                Verse (bass has no intro)
G-------------------------------------------------------------------------|
D-------------------------------------------------------------------------|
A-6/7-7-7-7-7-7-7-7-6/7-7-7-7-7-7-7-7-6/7-7-7-7-7-7-7-7-6/7-7-7-7-7-7-7-7-|
E-------------------------------------------------------------------------|

Chorus
G---------------------------------|---------------------------------|
D---------------------------------|---------------------------------|
A-4-4-4-4---------2-2-2-2-2-2-2-2-|-4-4-4-4---------2-2-2-2-2-2-2-2-|
E---------5-5-5-5-----------------|---------5-5-5-5-----------------|

Verse 
G-------------------------------------------------------------------------|
D-------------------------------------------------------------------------|
A-6/7-7-7-7-7-7-7-7-6/7-7-7-7-7-7-7-7-6/7-7-7-7-7-7-7-7-6/7-7-7-7-7-7-7-7-|
E-------------------------------------------------------------------------|

Chorus
G---------------------------------|---------------------------------|
D---------------------------------|---------------------------------|
A-4-4-4-4---------2-2-2-2-2-2-2-2-|-4-4-4-4---------2-2-2-2-2-2-2-2-|
E---------5-5-5-5-----------------|---------5-5-5-5-----------------|

Verse 
G-------------------------------------------------------------------------|
D-------------------------------------------------------------------------|
A-6/7-7-7-7-7-7-7-7-6/7-7-7-7-7-7-7-7-6/7-7-7-7-7-7-7-7-6/7-7-7-7-7-7-7-7-|
E-------------------------------------------------------------------------|

Chorus
G---------------------------------|---------------------------------|
D---------------------------------|---------------------------------|
A-4-4-4-4---------2-2-2-2-2-2-2-2-|-4-4-4-4---------2-2-2-2-2-2-2-2-|
E---------5-5-5-5-----------------|---------5-5-5-5-----------------|

G---------------------------------|---------------------------------|
D---------------------------------|---------------------------------|
A-4-4-4-4---------2-2-2-2-2-2-2-2-|-4-4-4-4---------2-2-2-2-2-2-2-2-|
E---------5-5-5-5-----------------|---------5-5-5-5-----------------|

Verse
G-------------------------------------------------------------------------|
D-------------------------------------------------------------------------|
A-------------------------------------------------------------------------|
E-6/7-7-7-7-7-7-7-7-6/7-7-7-7-7-7-7-7-6/7-7-7-7-7-7-7-7-6/7-7-7-7-7-7-7-7-|

Outro
G-----------------|
D-----------------|
A-9---10----12----|
E---9----10----12-|
            
Submit corrections

↑ Back to top | Tablatures and chords for acoustic guitar and electric guitar, ukulele, drums are parodies/interpretations of the original songs. You may use it for private study, scholarship, research or language learning purposes only