Home » B » Battalion Of Saints »

Battalion Of Saints - Animal In Man Tabs

Artists:  A B C D E F G H I J K L M N O P Q R S T U V W X Y Z # 

Animal In Man Tabs

(ver. 1) Click to play this song!
Battalion Of Saints
[Intro]

e|------------------------------------------------------------------------------|
B|------------------------------------------------------------------------------|
G|------------------------------------------------------------------------------|
D|------------------------------------------------------------------------------|
A|-10-10-9-9--10-10---9-9--10-10---9-9--7-7-7-7---------------------------------|  x3
E|-8--8--7-7--8--8--\-7-7--8--8--\-7-7--5-5-5-5---------------------------------|

e|------------------------------------------------------------------------------|
B|------------------------------------------------------------------------------|
G|------------------------------------------------------------------------------|
D|------------------------------------------------------------------------------|
A|-10-10---9-9--10-10---9-9--10-10--9-9--12-12-12-12----------------------------|
E|-8--8--\-7-7--8--8--\-7-7--8--8-\-7-7--10-10-10-10----------------------------|



[Verse]

e|------------------------------------------------------------------------------|
B|------------------------------------------------------------------------------|
G|------------------------------------------------------------------------------|
D|-9-9-9-9-9----12-12---------------10-10---------------------------------------|
A|-7-7-7-7-7-/--10-10-12-12--10-10--8--8------9-7-5-7---------------------------|
E|--------------------10-10--8--8-------------7-5-3-5---------------------------|



[Chorus]

e|------------------------------------------------------------------------------|
B|------------------------------------------------------------------------------|
G|------------------------------------------------------------------------------|
D|------------------------------------------------------------------------------|
A|-10-10-10-10-10-10-10--9-9--9-9-9-9-9-9---5-5--5-5-5-5-5-5--4-4--4-4-4-4-4-4--|
E|-8--8--8--8--8--8--8---7-7--7-7-7-7-7-7---3-3--3-3-3-3-3-3--2-2--2-2-2-2-2-2--|



[Outro]

e|-------------------------------|----------------------------------------------|
B|-------------------------------|----------------------------------------------|
G|-------------------------------|----------------------------------------------|
D|----10-----10-------12-----12--|------10----10-----12-----12------------------|
A|-10-8--10--8-----12-10--12-10--|---10-8--10-8---12-10-12--10------------------|
E|-8-----8---------10-----10-----|---8-----8------10----10----------------------|

e|--------------|---------------------------------------------------------------|
B|--------------|---------------------------------------------------------------|
G|--------------|---------------------------------------------------------------|
D|-9--7--5--4---|----9--7--5--4-------------------------------------------------|
A|-7--5--3--2---|----7--5--3--2--Let-Ring---------------------------------------|
E|--------------|---------------------------------------------------------------|

            
Submit corrections

↑ Back to top | Tablatures and chords for acoustic guitar and electric guitar, ukulele, drums are parodies/interpretations of the original songs. You may use it for private study, scholarship, research or language learning purposes only