Home » B » Bat For Lashes »

Bat For Lashes - Tahiti Chords

Artists:  A B C D E F G H I J K L M N O P Q R S T U V W X Y Z # 

Tahiti Chords
Version #1
Bat For Lashes


Copy URL
Here's the viola melody at the beginning:

e----------------------------------------------------
B-------------------------------------0--------------
G-----------1-----------1-----------1---3-1-3-1------
D-------1-2---------1-2---------1-2-------------4----
A-4---4-------4---4-------4---4----------------------
E----------------------------------------------------

Here's the piano melody during the entire song:

e----------------------------------------------------
B-------2-----------2-----------2-----------2--------
G-----1-----------1-----------1-----------1----------
D-2-4-----2-4-2-4-----2-4-2-4-----2-4-2-4-----2-4----
A----------------------------------------------------
E----------------------------------------------------


Intro:    C#m  C#m  C#m  C#m

  C#m  G#m  B       E       F#
Community   saw the best in me
  C#m                            
Exchanging the common heart 
                    E/G# F#/A#   E/B F#/A# E/G# F#/A#
For the salt in the sea
C#m             G#m  B    E          F#
Children of the sun  on a highway of hope
    C#m                   
The beauty of coming together
   E/G# F#/A#   E/B F#/A# E/G# F#/A#
In sor--row

  C#m
Tahiti we don't got no name
  C#m
Tahiti we don't got no home
  C#m
Tahiti we don't got no money
  C#m
Tahiti we don't got no,
E/G# F#/A#
Ho---ney
    
    C#m       G#m B     E           F#
But we do the di--shes, we make the bread
 C#m
 We are powdered ashes in the light of the beauty
  E/G#   F#/A#
He     said
     C#m        G#m B      E       F#
Wear those dark glasses to help us see
    C#m
Hot tears rolling down and our arms are knitted
     E/G#  F#/A#
All around you

C#m              G#m   B    E          F#     
Creatures of the night on a highway of hope
    C#m
The beauty that we'll leave each other
  E/G# F#/A#   E/B F#/A# E/G# F#/A#
Tomor--row

  C#m
Tahiti we don't got no name
  C#m
Tahiti we don't got no home
  C#m
Tahiti we don't got no money
  C#m
Tahiti we don't got no,
E  F#
Ho-ney            
Submit corrections

↑ Back to top | Tablatures and chords for acoustic guitar and electric guitar, ukulele, drums are parodies/interpretations of the original songs. You may use it for private study, scholarship, research or language learning purposes only