» » »

Bastille - Warmth Tabs

Artists:  A B C D E F G H I J K L M N O P Q R S T U V W X Y Z # 

Warmth Tabs

(ver. 1) Click to play this song!
Bastille
 Rating:
4.3/5 (18 votes)

 Warmth lessons Tabs too difficult? Try these video lessons and learn fast
 
                
Tuning: Standard
This is my first tab. Please leave corrections in the comments.
(this is for the electric guitar parts)
Intro/Chorus (Play this twice, at the last time play C# instead of E)
G#m
e|x-------------------------------------------------------|
b|x-------------------------------------------------------|
g|x-------------------------------------------------------|
d|-6------------------------------------------------------|
a|-6------------------------------------------------------|
e|x-------------------------------------------------------|

F#m
e|x-------------------------------------------------------|
b|x-------------------------------------------------------|
g|x-------------------------------------------------------|
d|-4------------------------------------------------------|
a|-4------------------------------------------------------|
e|x-------------------------------------------------------|

B 
e|-x-------------------------------------------------------|
b|-x-------------------------------------------------------|
g|-4-------------------------------------------------------|
d|-4-------------------------------------------------------|
a|-x-------------------------------------------------------|
e|-x-------------------------------------------------------|

E (Open Chord, only hit the top four notes)
e|-0-------------------------------------------------------|
b|-0-------------------------------------------------------|
g|-1-------------------------------------------------------|
d|-2-------------------------------------------------------|
a|-2-------------------------------------------------------|
e|-0-------------------------------------------------------|

C# 

e|-x-------------------------------------------------------|
b|-x-------------------------------------------------------|
g|-6-------------------------------------------------------|
d|-6-------------------------------------------------------|
a|-x-------------------------------------------------------|
e|-x-------------------------------------------------------|





0:29 Verse
"Never good, just the bad..." (bass line)

e|----------------------------------------------------------------------------------------------------------|
b|----------------------------------------------------------------------------------------------------------|
g|----------------------------------------------------------------------------------------------------------|
d|----------------------------------------------------------------------------------------------------------|
a|-2-2-2-2---2-2-2--2-2-2-------------------------------------------------2-2-2-2-2-2-2---2-2-2-2-2-2-2-2---|
e|-------------------------2-2-2-2---2-2-2--2-2-2--0-0-0-0---0-0-0--0-0-0---------------4-----------------2-|
x2 the timing is a little weird, just listen to it



0:56
"...about it..." (Kyle Simmon is palm muting this part)
e|------------------------------------------------------------------------------|
b|------------------------------------------------------------------------------|
g|-----------4--3------------------4--3-----------------------------------------|
d|--------4--------3------------4---------3-2-----------------------------------|
a|------------------------------------------------------------------------------|
e|------------------------------------------------------------------------------|

1:02 "Did you see the new's tonight?"
e|------------------------------------------------------------------------------|
b|------------------------------------------------------------------------------|
g|-----------4-3-4-8---6---4----------------------------------------------------|
d|--------4---------------------------------------------------------------------|
a|------------------------------------------------------------------------------|
e|------------------------------------------------------------------------------|

Chorus (play  twice) 1:24 "Hold me in this, wild wild world..."
G#m
e|x-------------------------------------------------------|
b|x-------------------------------------------------------|
g|x-------------------------------------------------------|
d|-6------------------------------------------------------|
a|-6------------------------------------------------------|
e|x-------------------------------------------------------|

F#m
e|x-------------------------------------------------------|
b|x-------------------------------------------------------|
g|x-------------------------------------------------------|
d|-4------------------------------------------------------|
a|-4------------------------------------------------------|
e|x-------------------------------------------------------|

B 
e|-x-------------------------------------------------------|
b|-x-------------------------------------------------------|
g|-4-------------------------------------------------------|
d|-4-------------------------------------------------------|
a|-x-------------------------------------------------------|
e|-x-------------------------------------------------------|

E 
e|-0-------------------------------------------------------|
b|-0-------------------------------------------------------|
g|-1-------------------------------------------------------|
d|-2-------------------------------------------------------|
a|-2-------------------------------------------------------|
e|-0-------------------------------------------------------|


1:40 Verse
"So come on let's..."

e|----------------------------------------------------------------------------------------------------------|
b|----------------------------------------------------------------------------------------------------------|
g|----------------------------------------------------------------------------------------------------------|
d|----------------------------------------------------------------------------------------------------------|
a|-2-2-2-2---2-2-2--2-2-2-------------------------------------------------2-2-2-2-2-2-2---2-2-2-2-2-2-2-2---|
e|-------------------------2-2-2-2---2-2-2--2-2-2--0-0-0-0---0-0-0--0-0-0---------------4-----------------2-|
x2 the timing is a little weird, just listen to it



2:07
"I just keep talking about it..." (Kyle Simmon is palm muting this part)
e|------------------------------------------------------------------------------|
b|------------------------------------------------------------------------------|
g|-----------4--3------------------4--3-----------------------------------------|
d|--------4--------3------------4---------3-2-----------------------------------|
a|------------------------------------------------------------------------------|
e|------------------------------------------------------------------------------|

2:14 "Did you see the new's last night?"
e|------------------------------------------------------------------------------|
b|------------------------------------------------------------------------------|
g|-----------4-3-4-8---6---4----------------------------------------------------|
d|--------4---------------------------------------------------------------------|
a|------------------------------------------------------------------------------|
e|------------------------------------------------------------------------------|

Chorus (play four times) 2:22 "Hold me in this, wild wild world..."
G#m
e|x-------------------------------------------------------|
b|x-------------------------------------------------------|
g|x-------------------------------------------------------|
d|-6------------------------------------------------------|
a|-6------------------------------------------------------|
e|x-------------------------------------------------------|

F#m
e|x-------------------------------------------------------|
b|x-------------------------------------------------------|
g|x-------------------------------------------------------|
d|-4------------------------------------------------------|
a|-4------------------------------------------------------|
e|x-------------------------------------------------------|

B 
e|-x-------------------------------------------------------|
b|-x-------------------------------------------------------|
g|-4-------------------------------------------------------|
d|-4-------------------------------------------------------|
a|-x-------------------------------------------------------|
e|-x-------------------------------------------------------|

E 
e|-0-------------------------------------------------------|
b|-0-------------------------------------------------------|
g|-1-------------------------------------------------------|
d|-2-------------------------------------------------------|
a|-2-------------------------------------------------------|
e|-0-------------------------------------------------------|



Solo 3:03
e|-------------------------------------------------------------------------|
b|-------------------------------------------------------------------------|
g|-------------------------------------------------------------------------| 
d|-------------------------------------------------------------------------|
a|---------6-6-6-7-6\4\2--6v--4v--2v---------------------------------------|
e|-------------------------------------------------------------------------|



Chorus (play four times) 3:10 "Hold me in this, wild wild world..."
G#m
e|x-------------------------------------------------------|
b|x-------------------------------------------------------|
g|x-------------------------------------------------------|
d|-6------------------------------------------------------|
a|-6------------------------------------------------------|
e|x-------------------------------------------------------|

F#m
e|x-------------------------------------------------------|
b|x-------------------------------------------------------|
g|x-------------------------------------------------------|
d|-4------------------------------------------------------|
a|-4------------------------------------------------------|
e|x-------------------------------------------------------|

B 
e|-x-------------------------------------------------------|
b|-x-------------------------------------------------------|
g|-4-------------------------------------------------------|
d|-4-------------------------------------------------------|
a|-x-------------------------------------------------------|
e|-x-------------------------------------------------------|

E 
e|-0-------------------------------------------------------|
b|-0-------------------------------------------------------|
g|-1-------------------------------------------------------|
d|-2-------------------------------------------------------|
a|-2-------------------------------------------------------|
e|-0-------------------------------------------------------|


3:40 "Draw me close" (play twice)

G#m
e|x-------------------------------------------------------|
b|x-------------------------------------------------------|
g|x-------------------------------------------------------|
d|-6------------------------------------------------------|
a|-6------------------------------------------------------|
e|x-------------------------------------------------------|

F#m
e|x-------------------------------------------------------|
b|x-------------------------------------------------------|
g|x-------------------------------------------------------|
d|-4------------------------------------------------------|
a|-4------------------------------------------------------|
e|x-------------------------------------------------------|
            
Submit corrections


        Warmth lessons Hard to play? Try these video lessons and learn fast Warmth lessons
        
↑ Back to top | Tablatures and chords for acoustic guitar and electric guitar, ukulele, drums are parodies/interpretations of the original songs. You may use it for private study, scholarship, research or language learning purposes only