Home » B » Bastille »

Bastille - The Draw Tabs

Artists:  A B C D E F G H I J K L M N O P Q R S T U V W X Y Z # 

The Draw Tabs

(Version #1)
Bastille
Tuning: Standard

 1(intro) 2        3        4        5        6        7(verse) 8      
e|--------|--------|--------|--------|--------|--------|--------|--------|
B|--------|--------|--------|--------|--------|--------|--------|--------|
G|--------|--------|--------|--------|--------|--------|--------|--------|
D|--------|--------|--------|--------|--------|--------|--------|--------|
A|2-------|2-------|-2-2-2-2|-2-2-2-2|-2-2-2-2|-2-2-2-2|-2-2-2-2|-2-2-2-2|
E|3-------|2-------|3-3-3-3-|2-2-2-2-|3-3-3-3-|2-2-2-2-|3-3-3-3-|2-2-2-2-|
  1 2 3 4  1 2 3 4  1 2 3 4  1 2 3 4  1 2 3 4  1 2 3 4  1 2 3 4  1 2 3 4 


 9        10       11       12       13       14       15(pre-c)16
e|--------|--------|--------|--------|--------|--------|--------|--------|
B|--------|--------|--------|--------|--------|--------|--------|--------|
G|--------|--------|--------|--------|--------|--------|--------|--------|
D|--------|--------|--------|--------|--------|--------|-----7-7|-4-4-2-2|
A|-2-2-2-2|-2-2-2-2|-2-2-2-2|-2-2-2-2|-2-2-2-2|-2-2-2-2|-2-25-5-|2-2-0-0-|
E|3-3-3-3-|2-2-2-2-|3-3-3-3-|2-2-2-2-|3-3-3-3-|2-2-2-2-|3-3-----|--------|
  1 2 3 4  1 2 3 4  1 2 3 4  1 2 3 4  1 2 3 4  1 2 3 4  1 2 3 4  1 2 3 4 


 17       18       19(c)    20       21       22       23(post) 24
e|--------|--------|--------|--------|--------|--------|--------|--------|
B|--------|--------|--------|--------|--------|--------|--------|--------|
G|--------|--------|-7-7----|--------|-7-7----|--------|--------|--------|
D|-----7-7|-4-4-2-2|5-5--7-7|-4-4-2-2|5-5--7-7|-4-4-2-2|--------|--------|
A|-2-25-5-|2-2-0-0-|----5-5-|2-2-0-0-|----5-5-|2-2-0-0-|2-------|2-------|
E|3-3-----|--------|--------|--------|--------|--------|3-------|2-------|
  1 2 3 4  1 2 3 4  1 2 3 4  1 2 3 4  1 2 3 4  1 2 3 4  1 2 3 4  1 2 3 4 


 25(verse)26       27       28       29       30       31       32
e|--------|--------|--------|--------|--------|--------|--------|--------|
B|--------|--------|--------|--------|--------|--------|--------|--------|
G|--------|--------|--------|--------|--------|--------|--------|--------|
D|--------|--------|--------|--------|--------|--------|--------|--------|
A|-2-2-2-2|-2-2-2-2|-2-2-2-2|-2-2-2-2|-2-2-2-2|-2-2-2-2|-2-2-2-2|-2-2-2-2|
E|3-3-3-3-|2-2-2-2-|3-3-3-3-|2-2-2-2-|3-3-3-3-|2-2-2-2-|3-3-3-3-|2-2-2-2-|
  1 2 3 4  1 2 3 4  1 2 3 4  1 2 3 4  1 2 3 4  1 2 3 4  1 2 3 4  1 2 3 4 


 33(pre-c)34       35       36       37(c)    38       39       40
e|--------|--------|--------|--------|--------|--------|--------|--------|
B|--------|--------|--------|--------|--------|--------|--------|--------|
G|--------|--------|--------|--------|-7-7----|--------|-7-7----|--------|
D|--------|--------|5-------|--------|5-5--7-7|-4-4-2-2|5-5--7-7|-4-4-2-2|
A|-2------|--------|5-------|--------|----5-5-|2-2-0-0-|----5-5-|2-2-0-0-|
E|3-------|--------|3-------|--------|--------|--------|--------|--------|
  1 2 3 4  1 2 3 4  1 2 3 4  1 2 3 4  1 2 3 4  1 2 3 4  1 2 3 4  1 2 3 4 


 41(post) 42       43       44       45       46       47       48
e|--------|--------|--------|--------|--------|--------|--------|--------|
B|--------|--------|--------|--------|--------|--------|--------|--------|
G|--------|--------|--------|--------|--------|--------|--------|--------|
D|--------|--------|--------|--------|--------|--------|--------|--------|
A|2-------|2-------|2-------|2-------|2-------|2-------|2-------|2-------|
E|3-------|2-------|3-------|2-------|3-------|2-------|3-------|2-------|
  1 2 3 4  1 2 3 4  1 2 3 4  1 2 3 4  1 2 3 4  1 2 3 4  1 2 3 4  1 2 3 4 


 49(sing) 50       51       52       53(chord)54       55       56
e|--------|--------|--------|--------|--------|--------|--------|--------|
B|--------|--------|--------|--------|--------|--------|--------|--------|
G|--------|--------|--------|--------|----7777|44442222|----7777|44442222|
D|--------|--------|--------|--------|55557777|44442222|55557777|44442222|
A|--------|--------|--------|--------|55555555|22220000|55555555|22220000|
E|--------|--------|--------|--------|3333----|--------|3333----|--------|
  1 2 3 4  1 2 3 4  1 2 3 4  1 2 3 4  1 2 3 4  1 2 3 4  1 2 3 4  1 2 3 4 


 57       58       59       60       61(outro)62       63       64
e|--------|--------|--------|--------|--------|--------|--------|--------|
B|--------|--------|--------|--------|--------|--------|--------|--------|
G|----7777|44442222|----7777|44442222|--------|--------|--------|--------|
D|55557777|44442222|55557777|44442222|5-------|--------|--------|--------|
A|55555555|22220000|55555555|22220000|5-------|--------|--------|--------|
E|3333----|--------|3333----|--------|3-------|--------|--------|--------|
  1 2 3 4  1 2 3 4  1 2 3 4  1 2 3 4  1 2 3 4  1 2 3 4  1 2 3 4  1 2 3 4 

This is the first tab I've written so anything I got wrong just let me know but I think it's pretty much ok.

Let the last chord ring out cos the song just fades into the intro to the next song.

The second pre chorus you can either play jet the normal pre chorus or you can play what I tabbed.


            
Submit corrections

↑ Back to top | Tablatures and chords for acoustic guitar and electric guitar, ukulele, drums are parodies/interpretations of the original songs. You may use it for private study, scholarship, research or language learning purposes only